Guitaretab - guitar tabs
Song name
# A B C D E F G H I J K L M N O P Q R S T U V W X Y Z

Cinder - Soul Creation tab

chorus               harmonics
d(-----------------)(----)(--5-)
a(-----------------)(--5-)(--5-)
f(-----------------)(--5-)(----)
c(--00-033-000-022-)(----)(----)
g(--00-033-000-022-)(----)(----)
C(--00-033-000-022-)(----)(----)

verse x2
d(--------------------------------------------------------)
a(--------------------------------------------------------)
f(------------------------11/0-----------------------11/0-)
c(--322-xx-022-022-xx-022------322-xx-022-xx-022-022------)
g(--322-xx-022-022-xx-022------322-xx-022-xx-022-022------)
C(--322-xx-022-022-xx-022------322-xx-022-xx-022-022------)
[ Tab from: http://www.guitaretab.com/c/cinder/32449.html ]
chorus(lead)
d(---------)
a(---------)
f(--6h8-88-)
c(---------)
g(---------)
C(---------)

post-chorus
d(-----------)
a(-----------)
f(-----------)
c(--33333333-)
g(--33333333-)
C(--33333333-)

bridge
d(-----------)(-----------------------)
a(-----------)(-----------------------)
f(--5555-576-)(--------976-------9767-)
c(--5555-576-)(--55555-976-55555-9769-)
g(--3333-354-)(--55555-754-55555-7547-)
C(-----------)(--55555-----55555------)
  pm.... ...

bridge(lead)
d(----------)(-------------------------)
a(----------)(--8--/12--------8--/12---)
f(------576-)(-------------------------)
c(----------)(-------------------------)
g(----------)(---------12-/10----------)
C(----------)(-------------------------)
Related for Soul Creation tab
Advertisement will be closed in 10 seconds