Song name
# A B C D E F G H I J K L M N O P Q R S T U V W X Y Z

Cinder - Please God tab

intro x8      verse     (x8)        (x4)
e(---------)(--------------------)(---------)
b(---------)(--------------------)(---------)
g(---------)(-----10---10--------)(---------)
d(--55-455-)(--55-10-5-10-55-455-)(--55-455-)
a(--55-455-)(--55----5----55-455-)(--55-455-)
D(--55-455-)(--55----5----55-455-)(--55-455-)

chorus x2
e(-----------------------------------------)
b(-----------------------------------------)
g(-----------------------------------------)
d(--999-777-444-222--999-777-444-4-555-555-)
a(--999-777-444-222--999-777-444-4-555-555-)
D(--777-555-222-000--777-555-222-2-333-333-)

breakdown x4
e(------------------)
b(------------------)
g(--2-4-2-4-2-4-5-5-)
d(--2-4-2-4-2-4-5-5-)
a(--0-2-0-2-0-2-3-3-)
D(------------------)
Tap to rate this tab
# A B C D E F G H I J K L M N O P Q R S T U V W X Y Z