Song name
# A B C D E F G H I J K L M N O P Q R S T U V W X Y Z

Cinder - Consuela tab

intro
eb(--------------------------------------------------------------)
bb(--6-5-6-6-----6-5-6-6---8p6/5-6p5/3-5p3/1-1h3h5/6-5/6/5-5---5-)
gb(--7-------7-----------7-5-------------------------------5-5---)
db(--7---------7-----------7-------------------------------3-----)
ab(--5---------------------5-------------------------------3-----)
Db(--------------------------------------------------------------)

pre-verse                lead
eb(-------------)(---------------)
bb(-------------)(--6-66-65-5-63-)
gb(-------------)(--7-77-76-6-74-)
db(-------------)(---------------)
ab(-------------)(---------------)
Db(--0-0010-030-)(---------------)
  pm. .. .. . ..     . ..

verse
e(------------)
b(------------)
g(------------)
d(------------)
a(------------)
D(--0-010-0-0-)
pm  . ... . .
    
chorus
eb(----------------------------------------------)
bb(----------------------------------------------)
gb(---------------------------------------7------)
db(--0-0010-133-0-0030-011-0-0060-133-0-0070-011-)
ab(--0-0010-133-0-0030-011-0-0060-133-0-0050-011-)
Db(--0-0010-133-0-0030-011-0-0060-133-0-00-0-011-)

bridge     (x2)         
eb(--------------)(--------------)(--------)
bb(-------7----5-)(--------------)(--------)
gb(-------8----4-)(--------------)(--------)
db(--------------)(--0-00-0-00-0-)(--3---5-)
ab(--------------)(--0-00-0-00-0-)(--3---5-)
Db(--0-00---00---)(--0-00-0-00-0-)(--3---5-)
  pm . ..   ..   

solo
eb(---------------------------------------18-17-)
bb(--6b-8-9-8-6b--------------6b-8-9-8-6b-------)
gb(---------------------------------------------)
db(--------------pick-scratch-------------------)
ab(---------------------------------------------)
Db(---------------------------------------------)

outro is the chorus and parts  of the intro repeated
Tap to rate this tab
# A B C D E F G H I J K L M N O P Q R S T U V W X Y Z