Song name
# A B C D E F G H I J K L M N O P Q R S T U V W X Y Z

Cinder - Lush tab

verse                           verse(lead) 
e(-----0-----0-----0-----0----)(---------)(-------)(----------)
b(-----4-----4-----4-----4----)(---------)(-------)(----------)
g(-----3-x33-3-x44-3-x33-3-xx-)(--5-5678-)(--8--6-)(------8---)
d(--11---x33---x44---x33---xx-)(--5-5678-)(-------)(--9-8---8-)
a(--11---x11---x22---x11---xx-)(--3-3456-)(-------)(----------)
D(--11------------------------)(---------)(-------)(----------)

chorus
e(-------------------------------------)
b(-------------------------------------)
g(------------------3----3----3----333-)
d(--1-0-1-0-0000-11-3-11-3-11-3-11-333-)
a(--1-0-1-0-0000-11-1-11-1-11-1-11-111-)
D(--1-0-1-0-0000-11---11---11---11-----)
          pm....

bridge
e(--------------------------------------)
b(--------------------------------------)
g(--4-4-x4-4----------4-4-x4-4-6-6-x6-6-)
d(--4-4-x4-4-6-6-x6-6-4-4-x4-4-6-6-x6-6-)
a(--2-2-x2-2-6-6-x6-6-2-2-x2-2-4-4-x4-4-)
D(-----------6-6-x6-6-------------------)
Tap to rate this tab
 
# A B C D E F G H I J K L M N O P Q R S T U V W X Y Z