Song name
# A B C D E F G H I J K L M N O P Q R S T U V W X Y Z

Cinder - Whistlin Pete tab

intro
e(------------------------------------------------------------------)
b(------------------4-------4-------5-------5-------4------4--------)
g(--6-------6-------------------------------------------------------)
d(----6-4-----6-4-----6-4-----6-4-----6-4-----6-4-----6-4-----6-4---)
a(--------4-------4-------4-------4-------4-------4-------4-------4-)
D(------------------------------------------------------------------)

chorus
e(-------------)
b(-------------)
g(-------------)
d(--0-111-0-11-)
a(--0-111-0-11-)
D(--0-111-0-11-)

verse
e(---------)
b(---------)
g(--777777-)
d(---------)
a(---------)
D(---------)

pre-chorus
e(--9-------)
b(----9-8-9-)
g(----------)
d(----------)
a(----------)
D(----------)

bridge
e(-----)(-------------)
b(-----)(-------------)
g(-----)(-------------)
d(--11-)(--0-111-0-11-)
a(--11-)(--0-111-0-11-)
D(--11-)(--0-111-0-11-)
         pm. ... . ..
Tap to rate this tab
 
# A B C D E F G H I J K L M N O P Q R S T U V W X Y Z