Song name
# A B C D E F G H I J K L M N O P Q R S T U V W X Y Z

Cinder - Electified tab

intro
e(--------)
b(--5---5-)
g(--4---6-)
d(--2---6-)
a(--0---4-)
E(--------)

verse x2
e(----------------------------------)
b(----------------------------------)
g(--4-4-444-4-4-444-6-6-666-6-6-666-)
d(--2-2-222-2-2-222-6-6-666-6-6-666-)
a(--0-0-000-0-0-000-4-4-444-4-4-444-)
E(----------------------------------)

verse(lead) x2
e(---------------------------------4---4--------4---4---)
b(-------5---5--------5---5----------5------------5-----)
g(--2-22---2---4-2-22---2---4/6-66-------6-6-66-------6-)
d(------------------------------------------------------)
a(------------------------------------------------------)
E(------------------------------------------------------)

pre-chorus
e(-----------------------------------)
b(-----------------------------------)
g(--44444444444444442222222244444444-)
d(--44444444444444442222222244444444-)
a(--22222222222222220000000022222222-)
E(-----------------------------------)
  pm................................

pre-chorus(lead)
e(-----------------------------------)
b(-----------------------------------)
g(-----44------44------22------44----)
d(-----44------44------22------44----)
a(-----22------22------00------22----)
E(-----------------------------------)

chorus x2
e(----------------------------------)
b(----------------------------------)
g(--6-6-6-6-4-4-4-4-----------------)
d(--6-6-6-6-4-4-4-4-6-6-6-6-7-7-7-7-)
a(--4-4-4-4-2-2-2-2-6-6-6-6-7-7-7-7-)
E(------------------4-4-4-4-5-5-5-5-)

chorus(lead)
e(--4----4----4-----0---)
b(----5----5----5-----0-)
g(----------------2-----)
d(----------------------)
a(----------------------)
E(----------------------)

bridge(lead) x2
e(--9-12-12-12b-9-12-12-12b-8~~-9-11-11-)
b(--------------------------------------)
g(--------------------------------------)
d(--------------------------------------)
a(--------------------------------------)
E(--------------------------------------)

solo
e(----------------------------------------------------------99999-)
b(------9/12-12-12b/9-9-7-76-/7-----9/12-12-12b/9-9-7-76-/7-------)
g(----------------------------------------------------------------)
d(--6-6----------------------6-6----------------------------------)
a(----------------------------------------------------------------)
E(----------------------------------------------------------------)

solo continued
e(-----------------------------------------------)
b(------9/12-12-12b/9-9-7-76-11-11-9-------------)
g(-----------------------------------13-11-11-10-)
d(--6-6------------------------------------------)
a(-----------------------------------------------)
E(-----------------------------------------------)

solo continued
e(--4/10-10-9-7--------)
b(--------------10-9-7-)
g(---------------------)
d(---------------------)
a(---------------------)
E(---------------------)

the last chorus(lead) is played the same as the bridge(lead)
Tap to rate this tab
 
# A B C D E F G H I J K L M N O P Q R S T U V W X Y Z