Song name
# A B C D E F G H I J K L M N O P Q R S T U V W X Y Z

Cinderella - Still Climbing tab

INTRO
e|-------------------------------------------------------------------|
B|-----18b(19)-------18b(19)-------20b(22)r----13b(14)r--13b(14)-----|
G|-------------------------------------------------------------------|
D|-------------------------------------------------------------------|
A|-------------------------------------------------------------------|
E|-------------------------------------------------------------------|

e|----------------------------------------------------------|
B|----16b(17)-----13b(14)r--13b(14)----18b(19)--------------|
G|----------------------------------------------------------|
D|----------------------------------------------------------|
A|----------------------------------------------------------|
E|----------------------------------------------------------|

e|----------------------------------------------------------|
B|----------------------------------------------------------|
G|------------------------------------------------3/5-------|
D|---------------5------5------5----------5-------3/5-------|
A|---------5----------3------5--------------------1/3-------|
E|----3h6----------------------------6p3--------------------|


e|----------------------------------------------------------|
B|----------------------------------------------------------|
G|----------------------------------------------------------|
D|---------------5------5------5----------------------3-----|
A|---------5----------3------5----------------8/7/4---3-----|
E|----3h6----------------------------6p3------6/5/3---1-----|


VERSE
e|-------------------------------------------------|
B|-------------------------------------------------|
G|-----------------------------------------3/5-----|
D|-------------------5--5------------------3/5-----|
A|-------------------5--5------------------1/3-----|
E|----6p3----6p5p3---3--3---6p3----6p5p3-----------|

e|-------------------------------------------------|
B|-------------------------------------------------|
G|-------------------------------------------------|
D|-------------------5--5------------------3-------|
A|-------------------5--5------------------3-------|
E|----6p3----6p5p3---3--3---6p3----6p5p3---1-------|


e|---------------------------------------------------|
B|---------------------------------------------------|
G|--------------3/5----------------------------------|
D|---5----------3/5---------5---------------3--------|
A|---5----------1/3---------5---------------3--------|
E|---3----------------------3------6p5p3----1--------|

CHORUS
e|------------------------------------------|
B|------------------------------------------|
G|----5--------------------3----------------|
D|----5------3----5--------3-----3-----5----|
A|----3------3----5--------1-----3-----5----|
E|-----------1----3--------------1-----3----|


e|-----------------------------------|
B|-----------------------------------|
G|----5--------------------3---------|
D|----5------3----5--------3-----3---|
A|----3------3----5--------1-----3---|
E|-----------1----3--------------1---|


VERSE 2
e|----------------------------------------------------------|
B|----------------------------------------------------------|
G|------------------------------------------------3/5-------|
D|---------------5------5------5----------5-------3/5-------|
A|---------5----------3------5--------------------1/3-------|
E|----3h6----------------------------6p3--------------------|


e|----------------------------------------------------------|
B|----------------------------------------------------------|
G|----------------------------------------------------------|
D|---------------5------5------5----------------------3-----|
A|---------5----------3------5----------------8/7/4---3-----|
E|----3h6----------------------------6p3------6/5/3---1-----|

e|-------------------------------------------------|
B|-------------------------------------------------|
G|-----------------------------------------3/5-----|
D|-------------------5--5------------------3/5-----|
A|-------------------5--5------------------1/3-----|
E|----6p3----6p5p3---3--3---6p3----6p5p3-----------|

e|-------------------------------------------------|
B|-------------------------------------------------|
G|-------------------------------------------------|
D|-------------------5--5------------------3-------|
A|-------------------5--5------------------3-------|
E|----6p3----6p5p3---3--3---6p3----6p5p3---1-------|

CHORUS
e|------------------------------------------|
B|------------------------------------------|
G|----5--------------------3----------------|
D|----5------3----5--------3-----3-----5----|
A|----3------3----5--------1-----3-----5----|
E|-----------1----3--------------1-----3----|


e|-----------------------------------|
B|-----------------------------------|
G|----5--------------------3---------|
D|----5------3----5--------3-----3---|
A|----3------3----5--------1-----3---|
E|-----------1----3--------------1---|

e|----------------------------------------------------------|
B|----------------------------------------------------------|
G|------------------------------------------------3/5-------|
D|---------------5------5------5----------5-------3/5-------|
A|---------5----------3------5--------------------1/3-------|
E|----3h6----------------------------6p3--------------------|


e|----------------------------------------------------------|
B|----------------------------------------------------------|
G|----------------------------------------------------------|
D|---------------5------5------5----------------------3-----|
A|---------5----------3------5----------------8/7/4---3-----|
E|----3h6----------------------------6p3------6/5/3---1-----|


BRIDGE
e|----------------------------------------------------|
B|----------------------------------------------------|
G|-----3-------------3------5-------7-7-7-7-7-7-------|
D|-----3------5------3------5-------7-7-7-7-7-7-------|
A|-----1------5------1------3-------5-5-5-5-5-5-------|
E|------------3---------------------------------------|


SOLO:
VERSE 2 x2

CHORUS x2
Tap to rate this tab
 
# A B C D E F G H I J K L M N O P Q R S T U V W X Y Z