Cinderella - Nobodys Fool tab

This is the intro solo to the Demo Version of Nobody's fool by Cinderella

The version thats on "the basement tapes":
Kapo first fret or tune the guitar a half step higher

The version on the "fox on the run" is in standard tuning

you can litsen to the Fox on the run version here:
http://www.youtube.com/watch?v=j4CIAjY8sHM

(note that the numbers are guidlines of when to play the different parts)

Rythm guitar:

   [1]
E-----------------------------------------------|
B-----------------------------------------------|
G---2----------2----------2----------4----------|
D---2----------2----------2----------4----------|
A---0----------0----------0----------2----------|
E-----------------------------------------------|

   [2]
E-----------------------------------------------|
B-----------------------------------------------|
G---2----------2----------5----------7----------|
D---2----------2----------5----------7----------|
A---0----------0----------3----------5----------|
E-----------------------------------------------|

   [3]
E-----------------------------------------3-----|
B--------5----------6----------5--------3---3---|
G------5---5------7---7------5---5--------------|
D-----------------------------------------------|
A---0----------0----------0----------2----------|
E-----------------------------------------------|
   [4]
E-----------------------------------------3-----|
B--------5----------6----------5--------3---3---|
G------5---5------7---7------5---5--------------|
D-----------------------------------------------|
A---0----------0----------0----------2----------|
E-----------------------------------------------|

Lead guitar:

   [1]
E-----------------------------------------------|
B---5---5----------------5--5--5----------------|
G---7b--7--5--7--5-------7b-7b-7--5-7---5-7-5---|
D-------------------7-------------------------7-|
A-----------------------------------------------|
E-----------------------------------------------|
   [2]
E-------------------8-5---8-5--------------------|
B--8b--5-8-5------8b----8-----8--8b-8-6-5---8b-8-|
G--------------5--------------------------7------|
D------------------------------------------------|
A------------------------------------------------|
E------------------------------------------------|
 [3]                                                   [4]
E-------------------------------------------------------------|
B-6-5---------------------------------------------------------|
G-----7b~~~~~~~~~~~~~~~~~~~~~~~~~~~~~~~~~~~~~~~~~~~~~~~-------|
D-------------------------------------------------------------|
A-------------------------------------------------------------|
E-------------------------------------------------------------|

b - bend
br - release bend
~ - vibrato
Tap to rate this tab
 
# A B C D E F G H I J K L M N O P Q R S T U V W X Y Z