Guitaretab - guitar tabs
Song name
# A B C D E F G H I J K L M N O P Q R S T U V W X Y Z

Cinderella - Shelter Me tab

Shelter Me tab by Cinderella, www.ultimate-guitar.com

tuning:standard
tabbed by:a crazy teenage rock and roll fan

first verse (done with acoustic guitar)
E|-3---3-3---3-3-3-|
B|-0---0-0---0-0-0-|
G|-0---0-0---0-0-0-|
D|-0---0-0---0-0-0-|
A|-2---2-2---2-2-2-|
E|-3---3-3---3-3-3-|
play this four times for the intro

E|-3---3-3---3-3-3-3---3-3---3-3-3-2---2-2---2-2-2-2---2-2---2-2-2-|
B|-0---0-0---0-0-0-0---0-0---0-0-0-3---3-3---3-3-3-3---3-3---3-3-3-|
G|-0---0-0---0-0-0-0---0-0---0-0-0-2---2-2---2-2-2-2---2-2---2-2-2-|
D|-0---0-0---0-0-0-0---0-0---0-0-0---------------------------------|
A|-2---2-2---2-2-2-2---2-2---2-2-2---------------------------------|
E|-3---3-3---3-3-3-3---3-3---3-3-3---------------------------------|

E|-----------------3---3-3---3-3-3-0---0-0---0-0-0-2---2-2---2-2-2-|
B|-1---1-1---1-1-1-0---0-0---0-0-0-2---2-2---2-2-2-3---3-3---3-3-3-|
G|-0---0-0---0-0-0-0---0-0---0-0-0-2---2-2---2-2-2-2---2-2---2-2-2-|
D|-2---2-2---2-2-2-0---0-0---0-0-0-2---2-2---2-2-2-----------------|
A|-3---3-3---3-3-3-2---2-2---2-2-2-0---0-0---0-0-0-----------------|
E|-0---0-0---0-0-0-3---3-3---3-3-3---------------------------------|

E|-3---3-3---3-3-3---------------------------------3---3-3---3-3-3-|
B|-0---0-0---0-0-0-4---4-4---4-4-4-1---1-1---1-1-1-0---0-0---0-0-0-|
G|-0---0-0---0-0-0-4---4-4---4-4-4-0---0-0---0-0-0-0---0-0---0-0-0-|
D|-0---0-0---0-0-0-4---4-4---4-4-4-2---2-2---2-2-2-0---0-0---0-0-0-|
A|-2---2-2---2-2-2-2---2-2---2-2-2-3---3-3---3-3-3-2---2-2---2-2-2-|
E|-3---3-3---3-3-3-----------------0---0-0---0-0-0-3---3-3---3-3-3-|

E|-----------------3---3-3---3-3-3-0---0-0---0-0-0-2---2-2---2-2-2-|
B|-1---1-1---1-1-1-0---0-0---0-0-0-2---2-2---2-2-2-3---3-3---3-3-3-|
G|-0---0-0---0-0-0-0---0-0---0-0-0-2---2-2---2-2-2-2---2-2---2-2-2-|
D|-2---2-2---2-2-2-0---0-0---0-0-0-2---2-2---2-2-2-----------------|
A|-3---3-3---3-3-3-2---2-2---2-2-2-0---0-0---0-0-0-----------------|
E|-0---0-0---0-0-0-3---3-3---3-3-3---------------------------------|

first chorus
E|-3---3-3---3-3-3-|
B|-0---0-0---0-0-0-|
G|-0---0-0---0-0-0-|
D|-0---0-0---0-0-0-|
A|-2---2-2---2-2-2-|
E|-3---3-3---3-3-3-|
play this four times

continue with this
E|-0---0-0---0-0-0-0---0-0---0-0-0-2---2-2---2-2-2-|
B|-2---2-2---2-2-2-2---2-2---2-2-2-3---3-3---3-3-3-|
G|-2---2-2---2-2-2-2---2-2---2-2-2-2---2-2---2-2-2-|
D|-2---2-2---2-2-2-2---2-2---2-2-2-----------------|
A|-0---0-0---0-0-0-0---0-0---0-0-0-----------------|
E|-------------------------------------------------|

first ending of chorus
E|-2---2-2---2-2-2-|
B|-3---3-3---3-3-3-|
G|-2---2-2---2-2-2-|
D|-----------------|
A|-----------------|
E|-----------------|

then reapeat the chorus again but take the second ending

second ending
E|-3---3-3---3-3-3-3---3-3---3-3-3-|
B|-0---0-0---0-0-0-0---0-0---0-0-0-|
G|-0---0-0---0-0-0-0---0-0---0-0-0-|
D|-0---0-0---0-0-0-0---0-0---0-0-0-|
A|-2---2-2---2-2-2-2---2-2---2-2-2-|
E|-3---3-3---3-3-3-3---3-3---3-3-3-|

then for the second verse, drums and electric guitaring kick in and the riff changes

second verse
E|-----------------------------------------------------------------|
A|-----------------------------------------------------------------|
D|-----------------------------------------------------------------|
G|-----------------------------------------------------------------|
B|-5-5-7---5-5-5-7---5-5-5-7---5-5-5-7---12-12-12-14---12-12-12-14-|
E|-3-3-3---3-3-3-3---3-3-3-3---3-3-3-3---10-10-10-10---10-10-10-10-|

E|---------------------------------------------------------------------|
A|---------------------------------------------------------------------|
D|---------------------------------------------------------------------|
G|---------------------------------------------------------------------|
B|-12-12-12-14---12-12-12-14---11-11-11-13---11-11-11-13---11-11-11-13-|
E|-10-10-10-10---10-10-10-10---9--9--9--9----9--9--9--9----9--9--9--9--|
[ Tab from: http://www.guitaretab.com/c/cinderella/27929.html ]
E|-------------------------------------------------------------------|
B|-------------------------------------------------------------------|
G|-------------------------------------------------------------------|
D|-------------------------------------------------------------------|
A|-11-11-11-13---5-5-5-7---5-5-5-7---5-5-5-7---5-5-5-7---12-12-12-14-|
E|-9--9--9--9----3-3-3-3---3-3-3-3---3-3-3-3---3-3-3-3---10-10-10-10-|

E|-------------------------------------------------------------|
B|-------------------------------------------------------------|
G|-------------------------------------------------------------|
D|-------------------------------------------------------------|
A|-12-12-12-14---12-12-12-14---12-12-12-14---5-5-5-7---5-5-5-7-|
E|-10-10-10-10---10-10-10-10---10-10-10-10---3-3-3-3---3-3-3-3-|

E|-------------------------------------------------------------------|
B|-------------------------------------------------------------------|
G|-------------------------------------------------------------------|
D|-4-4-4-6---4-4-4-6-------------------------------------------------|
A|-2-2-2-2---2-2-2-2---11-11-11-13---11-11-11-13---5-5-5-7---5-5-5-7-|
E|---------------------9--9--9--9----9--9--9--9----3-3-3-3---3-3-3-3-|

E|---------------------------------------------------------------|
B|---------------------------------------------------------------|
G|---------------------------------------------------------------|
D|---------------------------------------------------------------|
A|-11-11-11-13---11-11-11-13---5-5-5-7---5-5-5-7---11-11-11-13---|
E|-9--9--9--9----9--9--9--9----3-3-3-3---3-3-3-3---9--9--9--9----|

E|---------------------------------------------------------------------|
B|---------------------------------------------------------------------|
G|---------------------------------------------------------------------|
D|---------------------------------------------------------------------|
A|-11-11-11-13---5-5-5-7---5-5-5-7---7-7-7-9---7-7-7-9---12-12-12-14---|
E|-9--9--9--9----3-3-3-3---3-3-3-3---5-5-5-5---5-5-5-5---10-10-10-10---|

E|-------------|
B|-------------|
G|-------------|
D|-------------|
A|-12-12-12-14-|
E|-10-10-10-10-|

second chorus
E|-------------------|
B|-------------------|
G|-------------------|
D|-------------------|
A|-5-5-5-7---5-5-5-7-|
E|-3-3-3-3---3-3-3-3-|
play this four times

then continue with this
E|-----------------------------|
B|-----------------------------|
G|-----------------------------|
D|-----------------------------|
A|-11-11-11-13---11-11-11-13---|
E|-9--9--9--9----9--9--9--9----|
play this twice

first ending
E|---------------------------|
B|---------------------------|
G|---------------------------|
D|---------------------------|
A|-12-12-12-14---12-12-12-14-|
E|-10-10-10-10---10-10-10-10-|
play this twice

then reapeat the whole chorus again but play the second ending

second ending
E|-------------------------------------------------------------------|
B|-------------------------------------------------------------------|
G|-------------------------------------------------------------------|
D|-------------------------------------------------------------------|
A|-12-12-12-14---12-12-12-14---5-5-5-7---5-5-5-7---5-5-5-7---5-5-5-7-|
E|-10-10-10-10---10-10-10-10---3-3-3-3---3-3-3-3---3-3-3-3---3-3-3-3-|

i have no clue how to play the solos but i know that these are played over it
E|----------------------------|
B|----------------------------|
G|----------------------------|
D|----------------------------|
A|-11-11-11-13----11-11-11-13-|
E|-9--9--9--9-----9--9--9--9--|
play this twice

E|-------------------|
B|-------------------|
G|-------------------|
D|-------------------|
A|-5-5-5-7---5-5-5-7-|
E|-3-3-3-3---3-3-3-3-|
play this twice

E|----------------------------|
B|----------------------------|
G|----------------------------|
D|----------------------------|
A|-11-11-11-13----11-11-11-13-|
E|-9--9--9--9-----9--9--9--9--|

first ending
E|---------------------------|
B|---------------------------|
G|---------------------------|
D|---------------------------|
A|-12-12-12-14---12-12-12-14-|
E|-10-10-10-10---10-10-10-10-|
play this twice

then repeat the chorus again but take the second ending

second ending
E|-----------------------------------------------|
B|-----------------------------------------------|
G|-----------------------------------------------|
D|-----------------------------------------------|
A|-7-7-7-9---7-7-7-9---12-12-12-14---12-12-12-14-|
E|-5-5-5-5---5-5-5-5---10-10-10-10---10-10-10-10-|

then just play the second half of the second verse for verse three and reapeat the 
until the song fades out.
Related for Shelter Me tab
Advertisement will be closed in 10 seconds