Song name
# A B C D E F G H I J K L M N O P Q R S T U V W X Y Z

Cinderella - Shake Me tab

Cinderella - Shake Me          Standart Tuning
Tabbed By: sCoryvo             Whole Song! including solo's

1/3s = Slide  ph = pinch harmonic  b = bend string  h = hammer on

2 guitatarist in this Song: Jeff LaBar & Tom Kiefer.

Intro:
E---------------------3--3-------------------3--3--------------|
B---------------------3--3-------------------3--3--------------|
G-2-2-2-2-2-2-------4-0--0---------2--2-4--4-0--0---------2--2-|
D-2-2-2-2-2-2--9/4s-4-0--0-2-------2--2-4--4-0--0-2-------2--2-|
A-0-0-0-0-0-0--9/4s-2-0--0-2-------0--0-2--2-0--0-2-------0--0-|
E--------------7/2s---3--3-0--3/4s-----------3--3-0--3/4s------|
 
Verse 1&2: Line 1,2         Verse 1&2: Line 3              
E------3--3--------------   E------3--3-----------------------|
B------0--0--------------   B------0--0-----------------------|
G-4--4-0--0---------2--2-   G-4--4-0--0---------2-------------|
D-4--4-0--0-2-------2--2-   D-4--4-0--0-2-------2-------------|
A-2--2-0--0-2-------0--0-   A-2--2-0--0-2-------0-4/5/4/5/4s--|
E------3--3-0--3/4s------   E------3--3-0--3/4s---------------|

Verse 1: Line 4             Verse 2: Line 4
E------3--3---------------  E------3--3---------------------|
B------0--0---------------  B------0--0---------------------|
G-4--4-0--0---------2---2-  G-4--4-0--0---------2---2---2---|
D-4--4-0--0-2-------2-2-2-  D-4--4-0--0-2-------2-2-2-2-2-2-|
A-2--2-0--0-2-------0-2-0-  A-2--2-0--0-2-------0-2-0-2-0-2-|
E------3--3-0--3/4s---0---  E------3--3-0--3/4s---0---0---0-|

1st Chorus:
E----------------------------------------------------------------|
B-------------------------------2p-------------------------------|
G-4-4--2-------------4-4------------------4-4--2-------------2---|
D-4-4--2------2------4-4------0---------2-4-4--2------2------2-4-|
A-2-2--0------2------2-2----2-----------2-2-2--0------2------0-4-|
E--------3/4s-0-3/5s------3--------3/5s-0--------3/4s-0-3/5s---2-|

After 1st Chorus:
E------3--3--------2--5-3-2-0----------------|
B------3--3---1/3s------------3/2s-3-2-0-----|
G-4--4-0--0---1/3s-----------------------2---|
D-4--4-0--0-2------------------------------4-|
A-2--2-0--0-2--------------------------------|
E------3--3-0--------------------------------|

2nd Chorus:
E----------------------------------------|
B-------------------------------2p-------|
G-4-4--2-------------4-4-----------------|
D-4-4--2------2------4-4------0---------2|
A-2-2--0------2------2-2----2-----------2|
E--------3/4s-0-3/5s------3--------3/5s-0|
 |------------------2x------------------|

Bridge Before Solo:
E--------------------------------------------------------------------------|
B--------------------3---------------------------------------------------3-|
G-2-2------2---------2-2/4s4-4-4-4-4-4-2/4s4-4-4-4-4-4-2-2------2--------2-|
D-2-2--------2-------0-2/4s4-4-4-4-4-4-2/4s4-4-4-4-4-4-2-2--------2------0-|
A-0-0-2/4s---2---------0---2-2-2-2-2-2-0---2-2-2-2-2-2-0-0-2/4s---2--------|
E------------0--3/4s----------------------------------------------0--3/4s--|

Solo (Starts Directly After "Bridge Before Solo"): 
Jeff:
E-10ph+b-----------------------------------------------------10-12-14h15h-12|
B--------------------------------------11-13h14h-11/13s15h16h---------------|
G--------2------2------11-13h14h-11-14h-------------------------------------|
D--------2------2-----------------------------------------------------------|
A---------------------------------------------------------------------------|
E----------1/2s---1/2s------------------------------------------------------|
                       |--------------Not 100% Accurate Part---------------|
                                       
E-15/12s-15-17-15h14h-17-15h14h-17-19v-|
B--------------------------------------|       excuse me for the not 100%
G--------------------------------------|       accurate parts. its too fast
D--------------------------------------|       and too hard to make it a 
A--------------------------------------|       100% accurate.
E--------------------------------------|
|----------Not 100% Accurate-----------|

Tom While Jeff does the above 
E------------------|
B------------------|
G------------------|
D-4--4-4-4-4-4-4-4-|
A-4--4-4-4-4-4-4-4-|
E-2--2-2-2-2-2-2-2-|  Do this 4x
    |--palm mute--|

Tom:
E------------------------|
B------------7-5---------|
G-4-4-2/4s-4-----7-6-4-7-|
D-4-4-2/4s-4-------------|
A------------------------|
E------------------------|

E-10-10-10-10-9-9-9-9-10-10-10-10-11-11-11-11-12-12-12-12-12-12-12-16b-|
B----------------------------------------------------------------------|
G----------------------------------------------------------------------|
D----------------------------------------------------------------------|
A----------------------------------------------------------------------|
E----------------------------------------------------------------------|
|---------------------This is done in 4 seconds-----------------------|

E---------------------------------------------------------|
B----12-10h9h---------------------------------------------|
G-11----------11-10h9h-11-10h9h---------------------------|
D-------------------------------12-11h-9-12-11h-9-11-7/9s-|
A---------------------------------------------------------|
E---------------------------------------------------------|

E------------------------7-9-10-9-10-9-7-|
B-7-7-7-7-7-5------------7-9-10-9-10-9-7-|
G-------------6-4-4-2/4s-----------------|
D----------------------------------------|
A----------------------------------------|
E----------------------------------------|

Jeff While Tom Does The Above:
E-------------------------------------------|
B-------------------------------------------|
G-4-----------2---4-----------2---2---2---4-|
D-4---5---2---2---4---5---2---2-2-2-2-2-2-4-|
A-2---5---2---0---2---5---2---0-2-0-2-0-2-0-|
E-----3---0-----------3---0-----0---0---0---|

Bridge After Solo:
Jeff:
E------------3------0--------------- E------------3------0--------------|
B----------3------0----------------- B----------3------0----------------|
G-----4--0-----------------0-----2-- G-----4--0-------------2---2---2---|
D---4-----------2--------2-----2---- D---4-----------2------2-2-2-2-2-2-|
A-2--------------------------0------ A-2--------------------0-2-0-2-0-2-|
E----------------------0------------ E------------------------0---0---0-|
 |----------------3x---------------| 

Tom Playes: "Verse 1&2: line 1 & 2" 3x / "Verse 2: Line 4"
While Jeff does the above

3rd Chorus:
Jeff:
E-----------------------------------------|
B-------------------------------2p--------|
G-4-4--2-------------4-4------------------|
D-4-4--2------2------4-4------0---------2-|
A-2-2--0------2------2-2----2-----------2-|
E--------3/4s-0-3/5s------3--------3/5s-0-|
 |---------until the song ends-----------|

Tom: After Jeff did the above twice:
E-5-5-5-5-5--5-5-5-5-5--5---------5---------|
B-7-7-7-7-7--7-7-7-7-7--7-5-------7-5-------|
G---------------------------7-4-7-----7-4-4-|
D-------------------------------------------|
A-------------------------------------------|
E-------------------------------------------|

E-5-5-5-5-5--5-5-5-5-5--5-------------------------------------|
B-7-7-7-7-7--7-7-7-7-7--7-5-7-5-7-5-7-5-7-5-7-----------------|
G---------------------------------------------7-4--7--4--7--4-|
D-------------------------------------------------------------|
A-------------------------------------------------------------|
E-------------------------------------------------------------|
             + some little more...

                YOU ARE DONE, HAVE FUN!!!
Tap to rate this tab
# A B C D E F G H I J K L M N O P Q R S T U V W X Y Z