Song name
# A B C D E F G H I J K L M N O P Q R S T U V W X Y Z

Cinderella - Back Home Again tab

-----------------------------------------------------------------------------
                                  
               Back Home Again   - Cinderella (GUITAR)
            
-----------------------------------------------------------------------------
Tabbed by: Scotto10

Tuning: standard tuning

============================================================================= 

Guitar - rhthym



     <                          PM PM PM PM       PM PM PM PM  
     H.           Q       E  E  S  S  S  S  E  E  S  S  S  S   
E||--------------------|--------------------------------------|
B||--------------------|--------------------------------------|
G||--2-----------------|--------------------------------------|
D||--2------------2----|--4--4--------------4--4--------------|
A||--0------------2----|--4--4--4--4--4--4--4--4--4--4--4--4--|
E||---------------0----|--2--2--2--2--2--2--2--2--2--2--2--2--|


        PM PM PM PM                    PM PM PM PM       PM PM PM PM  
  E  E  S  S  S  S  Q    Q       E  E  S  S  S  S  E  E  S  S  S  S   
------------------------------|--------------------------------------|
------------------------------|--------------------------------------|
--------------------2---------|--------------------------------------|
--4--4--------------2----2----|--4--4--------------4--4--------------|
--4--4--4--4--4--4--0----2----|--4--4--4--4--4--4--4--4--4--4--4--4--|
--2--2--2--2--2--2-------0----|--2--2--2--2--2--2--2--2--2--2--2--2--|


        PM PM PM PM                    PM PM PM PM       PM PM PM PM  
  E  E  S  S  S  S  Q    Q       E  E  S  S  S  S  E  E  S  S  S  S   
------------------------------|--------------------------------------|
------------------------------|--------------------------------------|
--------------------2---------|--------------------------------------|
--4--4--------------2----2----|--4--4--------------4--4--------------|
--4--4--4--4--4--4--0----2----|--4--4--4--4--4--4--4--4--4--4--4--4--|
--2--2--2--2--2--2-------0----|--2--2--2--2--2--2--2--2--2--2--2--2--|


        PM PM PM PM            
  E  E  S  S  S  S  Q    Q     
------------------------------|
------------------------------|
--------------------2---------|
--4--4--------------2----2----|
--4--4--4--4--4--4--0----2----|
--2--2--2--2--2--2-------0----|


  PM PM PM PM PM PM PM PM PM PM PM PM PM PM PM PM  
  S  S  S  S  S  S  S  S  S  S  S  S  S  S  S  S   
--------------------------------------------------|
--------------------------------------------------|
--------------------------------------------------|
--------------------------------------------------|
--4--4--4--4--4--4--4--4--4--4--4--4--4--4--4--4--|
--2--2--2--2--2--2--2--2--2--2--2--2--2--2--2--2--|


  PM PM PM PM PM PM PM PM            
  S  S  S  S  S  S  S  S  Q    Q     
------------------------------------|
------------------------------------|
--------------------------2---------|
--------------------------2----2----|
--4--4--4--4--4--4--4--4--0----2----|
--2--2--2--2--2--2--2--2-------0----|


  PM PM PM PM PM PM PM PM PM PM PM PM PM PM PM PM  
  S  S  S  S  S  S  S  S  S  S  S  S  S  S  S  S   
--------------------------------------------------|
--------------------------------------------------|
--------------------------------------------------|
--------------------------------------------------|
--4--4--4--4--4--4--4--4--4--4--4--4--4--4--4--4--|
--2--2--2--2--2--2--2--2--2--2--2--2--2--2--2--2--|


  PM PM PM PM PM PM PM PM            
  S  S  S  S  S  S  S  S  Q    Q     
------------------------------------|
------------------------------------|
--------------------------2---------|
--------------------------2----2----|
--4--4--4--4--4--4--4--4--0----2----|
--2--2--2--2--2--2--2--2-------0----|


  PM PM PM PM PM PM PM PM PM PM PM PM PM PM PM PM  
  S  S  S  S  S  S  S  S  S  S  S  S  S  S  S  S   
--------------------------------------------------|
--------------------------------------------------|
--------------------------------------------------|
--------------------------------------------------|
--4--4--4--4--4--4--4--4--4--4--4--4--4--4--4--4--|
--2--2--2--2--2--2--2--2--2--2--2--2--2--2--2--2--|


  PM PM PM PM PM PM PM PM            
  S  S  S  S  S  S  S  S  Q    Q     
------------------------------------|
------------------------------------|
--------------------------2---------|
--------------------------2----2----|
--4--4--4--4--4--4--4--4--0----2----|
--2--2--2--2--2--2--2--2-------0----|


  PM PM PM PM PM PM PM PM PM PM PM PM PM PM PM PM  
  S  S  S  S  S  S  S  S  S  S  S  S  S  S  S  S   
--------------------------------------------------|
--------------------------------------------------|
--------------------------------------------------|
--------------------------------------------------|
--4--4--4--4--4--4--4--4--4--4--4--4--4--4--4--4--|
--2--2--2--2--2--2--2--2--2--2--2--2--2--2--2--2--|


  PM PM PM PM PM PM PM PM                                  
  S  S  S  S  S  S  S  S  Q    Q       H.           S E.   
------------------------------------|---------------------|
------------------------------------|---------------------|
--------------------------2---------|--7------------L-6---|
--------------------------2----2----|--7------------L-6---|
--4--4--4--4--4--4--4--4--0----2----|--5------------L-4---|
--2--2--2--2--2--2--2--2-------0----|---------------------|


                              PM PM PM PM       PM PM PM PM  
  H        Q    Q       E  E  S  S  S  S  E  E  S  S  S  S   
---------------------|--------------------------------------|
---------------------|--------------------------------------|
--4--------2---------|--------------------------------------|
--4--------2----2----|--4--4--------------4--4--------------|
--2--------0----2----|--4--4--4--4--4--4--4--4--4--4--4--4--|
----------------0----|--2--2--2--2--2--2--2--2--2--2--2--2--|


        PM PM PM PM                                                        
  E  E  S  S  S  S  Q    Q       H.           S E.     H        Q    Q     
------------------------------|---------------------|---------------------|
------------------------------|---------------------|---------------------|
--------------------2---------|--7------------L-6---|--4--------2---------|
--4--4--------------2----2----|--7------------L-6---|--4--------2----2----|
--4--4--4--4--4--4--0----2----|--5------------L-4---|--2--------0----2----|
--2--2--2--2--2--2-------0----|---------------------|----------------0----|


        PM PM PM PM       PM PM PM PM          PM PM PM PM            
  E  E  S  S  S  S  E  E  S  S  S  S     E  E  S  S  S  S  Q    Q     
--------------------------------------|------------------------------|
--------------------------------------|------------------------------|
--------------------------------------|--------------------2---------|
--4--4--------------4--4--------------|--4--4--------------2----2----|
--4--4--4--4--4--4--4--4--4--4--4--4--|--4--4--4--4--4--4--0----2----|
--2--2--2--2--2--2--2--2--2--2--2--2--|--2--2--2--2--2--2-------0----|


        PM PM PM PM       PM PM PM PM          PM PM PM PM            
  E  E  S  S  S  S  E  E  S  S  S  S     E  E  S  S  S  S  Q    Q     
--------------------------------------|------------------------------|
--------------------------------------|------------------------------|
--------------------------------------|--------------------2---------|
--4--4--------------4--4--------------|--4--4--------------2----2----|
--4--4--4--4--4--4--4--4--4--4--4--4--|--4--4--4--4--4--4--0----2----|
--2--2--2--2--2--2--2--2--2--2--2--2--|--2--2--2--2--2--2-------0----|


        PM PM PM PM       PM PM PM PM          PM PM PM PM            
  E  E  S  S  S  S  E  E  S  S  S  S     E  E  S  S  S  S  Q    Q     
--------------------------------------|------------------------------|
--------------------------------------|------------------------------|
--------------------------------------|--------------------2---------|
--4--4--------------4--4--------------|--4--4--------------2----2----|
--4--4--4--4--4--4--4--4--4--4--4--4--|--4--4--4--4--4--4--0----2----|
--2--2--2--2--2--2--2--2--2--2--2--2--|--2--2--2--2--2--2-------0----|


  PM PM PM PM PM PM PM PM PM PM PM PM PM PM PM PM  
  S  S  S  S  S  S  S  S  S  S  S  S  S  S  S  S   
--------------------------------------------------|
--------------------------------------------------|
--------------------------------------------------|
--------------------------------------------------|
--4--4--4--4--4--4--4--4--4--4--4--4--4--4--4--4--|
--2--2--2--2--2--2--2--2--2--2--2--2--2--2--2--2--|


  PM PM PM PM PM PM PM PM            
  S  S  S  S  S  S  S  S  Q    Q     
------------------------------------|
------------------------------------|
--------------------------2---------|
--------------------------2----2----|
--4--4--4--4--4--4--4--4--0----2----|
--2--2--2--2--2--2--2--2-------0----|


  PM PM PM PM PM PM PM PM PM PM PM PM PM PM PM PM  
  S  S  S  S  S  S  S  S  S  S  S  S  S  S  S  S   
--------------------------------------------------|
--------------------------------------------------|
--------------------------------------------------|
--------------------------------------------------|
--4--4--4--4--4--4--4--4--4--4--4--4--4--4--4--4--|
--2--2--2--2--2--2--2--2--2--2--2--2--2--2--2--2--|


  PM PM PM PM PM PM PM PM            
  S  S  S  S  S  S  S  S  Q    Q     
------------------------------------|
------------------------------------|
--------------------------2---------|
--------------------------2----2----|
--4--4--4--4--4--4--4--4--0----2----|
--2--2--2--2--2--2--2--2-------0----|


  PM PM PM PM PM PM PM PM PM PM PM PM PM PM PM PM  
  S  S  S  S  S  S  S  S  S  S  S  S  S  S  S  S   
--------------------------------------------------|
--------------------------------------------------|
--------------------------------------------------|
--------------------------------------------------|
--4--4--4--4--4--4--4--4--4--4--4--4--4--4--4--4--|
--2--2--2--2--2--2--2--2--2--2--2--2--2--2--2--2--|


  PM PM PM PM PM PM PM PM            
  S  S  S  S  S  S  S  S  Q    Q     
------------------------------------|
------------------------------------|
--------------------------2---------|
--------------------------2----2----|
--4--4--4--4--4--4--4--4--0----2----|
--2--2--2--2--2--2--2--2-------0----|


  PM PM PM PM PM PM PM PM PM PM PM PM PM PM PM PM  
  S  S  S  S  S  S  S  S  S  S  S  S  S  S  S  S   
--------------------------------------------------|
--------------------------------------------------|
--------------------------------------------------|
--------------------------------------------------|
--4--4--4--4--4--4--4--4--4--4--4--4--4--4--4--4--|
--2--2--2--2--2--2--2--2--2--2--2--2--2--2--2--2--|


  PM PM PM PM PM PM PM PM                                  
  S  S  S  S  S  S  S  S  Q    Q       H.           S E.   
------------------------------------|---------------------|
------------------------------------|---------------------|
--------------------------2---------|--7------------L-6---|
--------------------------2----2----|--7------------L-6---|
--4--4--4--4--4--4--4--4--0----2----|--5------------L-4---|
--2--2--2--2--2--2--2--2-------0----|---------------------|


                              PM PM PM PM       PM PM PM PM  
  H        Q    Q       E  E  S  S  S  S  E  E  S  S  S  S   
---------------------|--------------------------------------|
---------------------|--------------------------------------|
--4--------2---------|--------------------------------------|
--4--------2----2----|--4--4--------------4--4--------------|
--2--------0----2----|--4--4--4--4--4--4--4--4--4--4--4--4--|
----------------0----|--2--2--2--2--2--2--2--2--2--2--2--2--|


        PM PM PM PM                                                        
  E  E  S  S  S  S  Q    Q       H.           S E.     H        Q    Q     
------------------------------|---------------------|---------------------|
------------------------------|---------------------|---------------------|
--------------------2---------|--7------------L-6---|--4--------2---------|
--4--4--------------2----2----|--7------------L-6---|--4--------2----2----|
--4--4--4--4--4--4--0----2----|--5------------L-4---|--2--------0----2----|
--2--2--2--2--2--2-------0----|---------------------|----------------0----|


        PM PM PM PM       PM PM PM PM          PM PM PM PM            
  E  E  S  S  S  S  E  E  S  S  S  S     E  E  S  S  S  S  Q    Q     
--------------------------------------|------------------------------|
--------------------------------------|------------------------------|
--------------------------------------|--------------------2---------|
--4--4--------------4--4--------------|--4--4--------------2----2----|
--4--4--4--4--4--4--4--4--4--4--4--4--|--4--4--4--4--4--4--0----2----|
--2--2--2--2--2--2--2--2--2--2--2--2--|--2--2--2--2--2--2-------0----|


        PM PM PM PM       PM PM PM PM          PM PM PM PM            
  E  E  S  S  S  S  E  E  S  S  S  S     E  E  S  S  S  S  Q    Q     
--------------------------------------|------------------------------|
--------------------------------------|------------------------------|
--------------------------------------|--------------------2---------|
--4--4--------------4--4--------------|--4--4--------------2----2----|
--4--4--4--4--4--4--4--4--4--4--4--4--|--4--4--4--4--4--4--0----2----|
--2--2--2--2--2--2--2--2--2--2--2--2--|--2--2--2--2--2--2-------0----|


        PM PM PM PM       PM PM PM PM          PM PM PM PM            
  E  E  S  S  S  S  E  E  S  S  S  S     E  E  S  S  S  S  Q    Q     
--------------------------------------|------------------------------|
--------------------------------------|------------------------------|
--------------------------------------|--------------------2---------|
--4--4--------------4--4--------------|--4--4--------------2----2----|
--4--4--4--4--4--4--4--4--4--4--4--4--|--4--4--4--4--4--4--0----2----|
--2--2--2--2--2--2--2--2--2--2--2--2--|--2--2--2--2--2--2-------0----|


        PM PM PM PM       PM PM PM PM          PM PM PM PM            
  E  E  S  S  S  S  E  E  S  S  S  S     E  E  S  S  S  S  Q    Q     
--------------------------------------|------------------------------|
--------------------------------------|------------------------------|
--------------------------------------|--------------------2---------|
--4--4--------------4--4--------------|--4--4--------------2----2----|
--4--4--4--4--4--4--4--4--4--4--4--4--|--4--4--4--4--4--4--0----2----|
--2--2--2--2--2--2--2--2--2--2--2--2--|--2--2--2--2--2--2-------0----|


  E  E  H        Q       E  E  H        Q       E  E  H        Q     
----------------------|----------------------|----------------------|
----------------------|----------------------|----------------------|
----------------------|----------------------|----------------------|
--4--4----------------|--4--4----------------|--4--4----------------|
--4--4----------------|--4--4----------------|--4--4----------------|
--2--2----------------|--2--2----------------|--2--2----------------|


  E  E  H        Q       H.           S E.     W                 
----------------------|---------------------|-------------------|
----------------------|---------------------|-------------------|
----------------------|--4------------L-6---|--7----------------|
--4--4----------------|--4------------L-6---|--7----------------|
--4--4----------------|--2------------L-4---|--5----------------|
--2--2----------------|---------------------|-------------------|


                              PM PM PM PM       PM PM PM PM  
  H        Q    Q       E  E  S  S  S  S  E  E  S  S  S  S   
---------------------|--------------------------------------|
---------------------|--------------------------------------|
--6--------5----4----|--------------------------------------|
--6--------5----4----|--4--4--------------4--4--------------|
--4--------3----2----|--4--4--4--4--4--4--4--4--4--4--4--4--|
---------------------|--2--2--2--2--2--2--2--2--2--2--2--2--|


        PM PM PM PM                    PM PM PM PM       PM PM PM PM  
  E  E  S  S  S  S  Q    Q       E  E  S  S  S  S  E  E  S  S  S  S   
------------------------------|--------------------------------------|
------------------------------|--------------------------------------|
--------------------2---------|--------------------------------------|
--4--4--------------2----2----|--4--4--------------4--4--------------|
--4--4--4--4--4--4--0----2----|--4--4--4--4--4--4--4--4--4--4--4--4--|
--2--2--2--2--2--2-------0----|--2--2--2--2--2--2--2--2--2--2--2--2--|


        PM PM PM PM                                     
  E  E  S  S  S  S  Q    Q        H         Q     Q     
------------------------------|------------------14----|
------------------------------|--15--------17----------|
--------------------2---------|------------------------|
--4--4--------------2----2----|------------------------|
--4--4--4--4--4--4--0----2----|------------------------|
--2--2--2--2--2--2-------0----|------------------------|


   H         Q     Q        H        Q    Q     
------------------14----|--13------------------|
--15--------17----------|----------------------|
------------------------|------------5----4----|
------------------------|------------5----4----|
------------------------|------------3----2----|
------------------------|----------------------|


        PM PM PM PM       PM PM PM PM          PM PM PM PM            
  E  E  S  S  S  S  E  E  S  S  S  S     E  E  S  S  S  S  Q    Q     
--------------------------------------|------------------------------|
--------------------------------------|------------------------------|
--------------------------------------|--------------------2---------|
--4--4--------------4--4--------------|--4--4--------------2----2----|
--4--4--4--4--4--4--4--4--4--4--4--4--|--4--4--4--4--4--4--0----2----|
--2--2--2--2--2--2--2--2--2--2--2--2--|--2--2--2--2--2--2-------0----|


        PM PM PM PM       PM PM PM PM          PM PM PM PM            
  E  E  S  S  S  S  E  E  S  S  S  S     E  E  S  S  S  S  Q    Q     
--------------------------------------|------------------------------|
--------------------------------------|------------------------------|
--------------------------------------|--------------------2---------|
--4--4--------------4--4--------------|--4--4--------------2----2----|
--4--4--4--4--4--4--4--4--4--4--4--4--|--4--4--4--4--4--4--0----2----|
--2--2--2--2--2--2--2--2--2--2--2--2--|--2--2--2--2--2--2-------0----|


        PM PM PM PM       PM PM PM PM          PM PM PM PM            
  E  E  S  S  S  S  E  E  S  S  S  S     E  E  S  S  S  S  Q    Q     
--------------------------------------|------------------------------|
--------------------------------------|------------------------------|
--------------------------------------|--------------------2---------|
--4--4--------------4--4--------------|--4--4--------------2----2----|
--4--4--4--4--4--4--4--4--4--4--4--4--|--4--4--4--4--4--4--0----2----|
--2--2--2--2--2--2--2--2--2--2--2--2--|--2--2--2--2--2--2-------0----|


        PM PM PM PM       PM PM PM PM          PM PM PM PM            
  E  E  S  S  S  S  E  E  S  S  S  S     E  E  S  S  S  S  Q    Q     
--------------------------------------|------------------------------|
--------------------------------------|------------------------------|
--------------------------------------|--------------------2---------|
--4--4--------------4--4--------------|--4--4--------------2----2----|
--4--4--4--4--4--4--4--4--4--4--4--4--|--4--4--4--4--4--4--0----2----|
--2--2--2--2--2--2--2--2--2--2--2--2--|--2--2--2--2--2--2-------0----|


        PM PM PM PM       PM PM PM PM          PM PM PM PM            
  E  E  S  S  S  S  E  E  S  S  S  S     E  E  S  S  S  S  Q    Q     
--------------------------------------|------------------------------|
--------------------------------------|------------------------------|
--------------------------------------|--------------------2---------|
--4--4--------------4--4--------------|--4--4--------------2----2----|
--4--4--4--4--4--4--4--4--4--4--4--4--|--4--4--4--4--4--4--0----2----|
--2--2--2--2--2--2--2--2--2--2--2--2--|--2--2--2--2--2--2-------0----|


  E  E  Q    E  E  Q       E  E  Q    E  E  Q       E  E  Q    E  E  Q     
------------------------|------------------------|------------------------|
------------------------|------------------------|------------------------|
------------------------|------------------------|------------------------|
--4--4-------4--4-------|--4--4-------4--4-------|--4--4-------4--4-------|
--4--4-------4--4-------|--4--4-------4--4-------|--4--4-------4--4-------|
--2--2-------2--2-------|--2--2-------2--2-------|--2--2-------2--2-------|


  E  E  Q    E  E  Q       E  E  Q    E  E  Q       E  E  Q    E  E  Q      
------------------------|------------------------|------------------------||
------------------------|------------------------|------------------------||
------------------------|------------------------|------------------------||
--4--4-------4--4-------|--4--4-------4--4-------|--4--4-------4--4-------||
--4--4-------4--4-------|--4--4-------4--4-------|--4--4-------4--4-------||
--2--2-------2--2-------|--2--2-------2--2-------|--2--2-------2--2-------||




============================================================================= 

Guitar 2



     <                          PM PM PM PM       PM PM PM PM  
     H.           Q       E  E  S  S  S  S  E  E  S  S  S  S   
E||--------------------|--------------------------------------|
B||--------------------|--------------------------------------|
G||--2-----------------|--------------------------------------|
D||--2------------2----|--4--4--------------4--4--------------|
A||--0------------2----|--4--4--4--4--4--4--4--4--4--4--4--4--|
E||---------------0----|--2--2--2--2--2--2--2--2--2--2--2--2--|


        PM PM PM PM                                      
  E  E  S  S  S  S  Q    Q       Q      Q    Q    S E.   
------------------------------|-------------------------|
------------------------------|-------------------------|
--------------------2---------|-------------------2-----|
--4--4--------------2----2----|-------<>4-----------4---|
--4--4--4--4--4--4--0----2----|-------------------------|
--2--2--2--2--2--2-------0----|-------------------------|


  Q      Q    E.    S S  S S  S    Q      Q    Q    S E.   
--------------------------------|-------------------------|
--------------4br---2-4p-2------|-------------------------|
--------------4br---2-4p-2------|-------------------2-----|
-------<>4-----------------4p-2-|-------<>4-----------4---|
--------------------------------|-------------------------|
--------------------------------|-------------------------|


  Q      Q    E.    S S  S S  S  
--------------------------------|
--------------4br---2-4p-2------|
--------------4br---2-4p-2------|
-------<>4-----------------4p-2-|
--------------------------------|
--------------------------------|


  PM PM PM PM PM PM PM PM PM PM PM PM PM PM PM PM  
  S  S  S  S  S  S  S  S  S  S  S  S  S  S  S  S   
--------------------------------------------------|
--------------------------------------------------|
--------------------------------------------------|
--------------------------------------------------|
--4--4--4--4--4--4--4--4--4--4--4--4--4--4--4--4--|
--2--2--2--2--2--2--2--2--2--2--2--2--2--2--2--2--|


  PM PM PM PM PM PM PM PM            
  S  S  S  S  S  S  S  S  Q    Q     
------------------------------------|
------------------------------------|
--------------------------2---------|
--------------------------2----2----|
--4--4--4--4--4--4--4--4--0----2----|
--2--2--2--2--2--2--2--2-------0----|


  PM PM PM PM PM PM PM PM PM PM PM PM PM PM PM PM  
  S  S  S  S  S  S  S  S  S  S  S  S  S  S  S  S   
--------------------------------------------------|
--------------------------------------------------|
--------------------------------------------------|
--------------------------------------------------|
--4--4--4--4--4--4--4--4--4--4--4--4--4--4--4--4--|
--2--2--2--2--2--2--2--2--2--2--2--2--2--2--2--2--|


  PM PM PM PM PM PM PM PM            
  S  S  S  S  S  S  S  S  Q    Q     
------------------------------------|
------------------------------------|
--------------------------2---------|
--------------------------2----2----|
--4--4--4--4--4--4--4--4--0----2----|
--2--2--2--2--2--2--2--2-------0----|


  PM PM PM PM PM PM PM PM PM PM PM PM PM PM PM PM  
  S  S  S  S  S  S  S  S  S  S  S  S  S  S  S  S   
--------------------------------------------------|
--------------------------------------------------|
--------------------------------------------------|
--------------------------------------------------|
--4--4--4--4--4--4--4--4--4--4--4--4--4--4--4--4--|
--2--2--2--2--2--2--2--2--2--2--2--2--2--2--2--2--|


  PM PM PM PM PM PM PM PM            
  S  S  S  S  S  S  S  S  Q    Q     
------------------------------------|
------------------------------------|
--------------------------2---------|
--------------------------2----2----|
--4--4--4--4--4--4--4--4--0----2----|
--2--2--2--2--2--2--2--2-------0----|


  PM PM PM PM PM PM PM PM PM PM PM PM PM PM PM PM  
  S  S  S  S  S  S  S  S  S  S  S  S  S  S  S  S   
--------------------------------------------------|
--------------------------------------------------|
--------------------------------------------------|
--------------------------------------------------|
--4--4--4--4--4--4--4--4--4--4--4--4--4--4--4--4--|
--2--2--2--2--2--2--2--2--2--2--2--2--2--2--2--2--|


  PM PM PM PM PM PM PM PM                                  
  S  S  S  S  S  S  S  S  Q    Q       H.           S E.   
------------------------------------|---------------------|
------------------------------------|---------------------|
--------------------------2---------|--7------------L-6---|
--------------------------2----2----|--7------------L-6---|
--4--4--4--4--4--4--4--4--0----2----|--5------------L-4---|
--2--2--2--2--2--2--2--2-------0----|---------------------|


  H        Q    Q       Q      Q    Q    S E.   
---------------------|-------------------------|
---------------------|-------------------------|
--4--------2---------|-------------------2-----|
--4--------2----2----|-------<>4-----------4---|
--2--------0----2----|-------------------------|
----------------0----|-------------------------|


  Q      Q    E.    S S  S S  S    H.           S E.     H        Q    Q     
--------------------------------|---------------------|---------------------|
--------------4br---2-4p-2------|---------------------|---------------------|
--------------4br---2-4p-2------|--7------------L-6---|--4--------2---------|
-------<>4-----------------4p-2-|--7------------L-6---|--4--------2----2----|
--------------------------------|--5------------L-4---|--2--------0----2----|
--------------------------------|---------------------|----------------0----|


  Q      Q    Q    S E.     Q      Q    E.    S S  S S  S  
-------------------------|--------------------------------|
-------------------------|--------------4br---2-4p-2------|
-------------------2-----|--------------4br---2-4p-2------|
-------<>4-----------4---|-------<>4-----------------4p-2-|
-------------------------|--------------------------------|
-------------------------|--------------------------------|


  Q      Q    Q    S E.     Q      Q    H           Q      Q    Q    S E.   
-------------------------|-----------------------|-------------------------|
-------------------------|-----------------------|-------------------------|
-------------------2-----|-----------------------|-------------------2-----|
-------<>4-----------4---|-------<>4-------------|-------<>4-----------4---|
-------------------------|-----------------------|-------------------------|
-------------------------|-----------------------|-------------------------|


                          PM PM PM PM PM PM PM PM PM PM PM PM PM PM PM PM  
  Q      Q    H           S  S  S  S  S  S  S  S  S  S  S  S  S  S  S  S   
-----------------------|--------------------------------------------------|
-----------------------|--------------------------------------------------|
-----------------------|--------------------------------------------------|
-------<>4-------------|--------------------------------------------------|
-----------------------|--4--4--4--4--4--4--4--4--4--4--4--4--4--4--4--4--|
-----------------------|--2--2--2--2--2--2--2--2--2--2--2--2--2--2--2--2--|


  PM PM PM PM PM PM PM PM            
  S  S  S  S  S  S  S  S  Q    Q     
------------------------------------|
------------------------------------|
--------------------------2---------|
--------------------------2----2----|
--4--4--4--4--4--4--4--4--0----2----|
--2--2--2--2--2--2--2--2-------0----|


  PM PM PM PM PM PM PM PM PM PM PM PM PM PM PM PM  
  S  S  S  S  S  S  S  S  S  S  S  S  S  S  S  S   
--------------------------------------------------|
--------------------------------------------------|
--------------------------------------------------|
--------------------------------------------------|
--4--4--4--4--4--4--4--4--4--4--4--4--4--4--4--4--|
--2--2--2--2--2--2--2--2--2--2--2--2--2--2--2--2--|


  PM PM PM PM PM PM PM PM            
  S  S  S  S  S  S  S  S  Q    Q     
------------------------------------|
------------------------------------|
--------------------------2---------|
--------------------------2----2----|
--4--4--4--4--4--4--4--4--0----2----|
--2--2--2--2--2--2--2--2-------0----|


  PM PM PM PM PM PM PM PM PM PM PM PM PM PM PM PM  
  S  S  S  S  S  S  S  S  S  S  S  S  S  S  S  S   
--------------------------------------------------|
--------------------------------------------------|
--------------------------------------------------|
--------------------------------------------------|
--4--4--4--4--4--4--4--4--4--4--4--4--4--4--4--4--|
--2--2--2--2--2--2--2--2--2--2--2--2--2--2--2--2--|


  PM PM PM PM PM PM PM PM            
  S  S  S  S  S  S  S  S  Q    Q     
------------------------------------|
------------------------------------|
--------------------------2---------|
--------------------------2----2----|
--4--4--4--4--4--4--4--4--0----2----|
--2--2--2--2--2--2--2--2-------0----|


  PM PM PM PM PM PM PM PM PM PM PM PM PM PM PM PM  
  S  S  S  S  S  S  S  S  S  S  S  S  S  S  S  S   
--------------------------------------------------|
--------------------------------------------------|
--------------------------------------------------|
--------------------------------------------------|
--4--4--4--4--4--4--4--4--4--4--4--4--4--4--4--4--|
--2--2--2--2--2--2--2--2--2--2--2--2--2--2--2--2--|


  PM PM PM PM PM PM PM PM                                  
  S  S  S  S  S  S  S  S  Q    Q       H.           S E.   
------------------------------------|---------------------|
------------------------------------|---------------------|
--------------------------2---------|--7------------L-6---|
--------------------------2----2----|--7------------L-6---|
--4--4--4--4--4--4--4--4--0----2----|--5------------L-4---|
--2--2--2--2--2--2--2--2-------0----|---------------------|


  H        Q    Q       Q      Q    Q    S E.   
---------------------|-------------------------|
---------------------|-------------------------|
--4--------2---------|-------------------2-----|
--4--------2----2----|-------<>4-----------4---|
--2--------0----2----|-------------------------|
----------------0----|-------------------------|


  Q      Q    E.    S S  S S  S    H.           S E.     H        Q    Q     
--------------------------------|---------------------|---------------------|
-------<>7----4br---2-4p-2------|---------------------|---------------------|
--------------4br---2-4p-2------|--7------------L-6---|--4--------2---------|
---------------------------4p-2-|--7------------L-6---|--4--------2----2----|
--------------------------------|--5------------L-4---|--2--------0----2----|
--------------------------------|---------------------|----------------0----|


  Q      Q    Q    S E.     Q    Q    H           Q      Q    Q    S E.   
-------------------------|---------------------|-------------------------|
-------------------------|---------------------|-------------------------|
-------------------2-----|---------------------|-------------------2-----|
-------<>4-----------4---|-------4-------------|-------<>4-----------4---|
-------------------------|---------------------|-------------------------|
-------------------------|---------------------|-------------------------|


  Q      Q    H           Q    Q    Q    S E.     Q      Q    H         
-----------------------|-----------------------|-----------------------|
-----------------------|-----------------------|-----------------------|
-----------------------|-----------------2-----|-----------------------|
-------<>4-------------|-------4-----------4---|-------<>4-------------|
-----------------------|-----------------------|-----------------------|
-----------------------|-----------------------|-----------------------|


                                                         PH                     
  Q    Q    Q    S E.     Q      Q    H           Q      Q     S S S S S S S S  
-----------------------|-----------------------|-------------------------------|
-----------------------|-----------------------|-------------------------------|
-----------------2-----|-----------------------|-------<>4b----2---------------|
-------4-----------4---|-------<>4-------------|-----------------4-2-----------|
-----------------------|-----------------------|---------------------4-3-2-----|
-----------------------|-----------------------|---------------------------5-2-|


  Q    H.               Q    S  E     S  E.     S  Q     
---------------------|----------------------------------|
---------------------|---------16br--14-16br------------|
---------------------|---------16br--14-16br---14-------|
---------------------|----------------------------16----|
---------------------|----------------------------------|
--L----2b------------|----------------------------------|


  Q     H.                 H         Q     Q        H         Q     Q     
-----------------------|------------------------|------------------------|
-------17br------------|------------14----15----|------------14----15----|
-------16br------------|--16--------------------|--16--------------------|
-----------------------|------------------------|------------------------|
-----------------------|------------------------|------------------------|
-----------------------|------------------------|------------------------|


   H         Q      Q     
------------16b----16----|
--14---------------------|
-------------------------|
-------------------------|
-------------------------|
-------------------------|


        |---3--|       |---3--|       |---3--|       |---3--|  
   E    S  S   S  E    S  S   S  E    S  S   S  E    S  S   S  
-------14-------------14-------------14-------------14--------|
--17b-----17p-14---------17p-14-17b-----17p-14---------17p-14-|
-----------------16b---------------------------16b------------|
--------------------------------------------------------------|
--------------------------------------------------------------|
--------------------------------------------------------------|


        |---3--|  |---6--|  |---6--|  |---6--|  |---6--|         
   E    S   S  S  S  S   S  S   S  S  S  S   S  S   S  S  Q      
-------17p-14----14---------------------------------------------|
--17b---------17----17p-14-17p-14----14-------------------------|
----------------------------------16----16p-14-16p-14----14\----|
------------------------------------------------------16--------|
----------------------------------------------------------------|
----------------------------------------------------------------|


  Pinch Harmonics, bridge to neck                                   
  |-----------------3----------------|  |--3--|  |--3--|  |--3--|   
  E                               E  E  E  E  E  E  E  E  E  E  E   
-------------------------------------------------------------------|
-------------------------------------------------------------------|
--4-------------------------------4--4--4--4--4--4--4--4--4--4--4--|
-------------------------------------------------------------------|
-------------------------------------------------------------------|
-------------------------------------------------------------------|


   |--3-|     |--3--|                                             
   S  S S S S S  S  S E   S S S S  Q        H         Q     Q     
----------------------------------------|------------------------|
----------------------------------------|------------14----15----|
--(6)-4-2---2-2h-4p-2-------------------|--16--------------------|
----------4-----------4\--4-2-----------|------------------------|
------------------------------4-2~-L----|------------------------|
----------------------------------------|------------------------|


   H         Q     Q        H         Q      Q     
------------------------|------------16b----16----|
------------14----15----|--14---------------------|
--16--------------------|-------------------------|
------------------------|-------------------------|
------------------------|-------------------------|
------------------------|-------------------------|


   |---6--|  |---6--|  |---6--|  |---6--|  |---6--|  |---6--|  |---6--|  |---6--
   S   S  S  S   S  S  S   S  S  S   S  S  S   S  S  S   S  S  S   S  S  S   S  
--17p-14----17p-14----17p-14----17p-14----16p-14----16p-14----16p-14----16p-14--
---------14--------14--------14--------14--------14--------14--------14--------1
--------------------------------------------------------------------------------
--------------------------------------------------------------------------------
--------------------------------------------------------------------------------
--------------------------------------------------------------------------------


   |---6--|  |---6--|  |---6--|  |---6--|  |---6--|  |---6--|  |---6--|  |---6--
   S   S  S  S   S  S  S   S  S  S   S  S  S   S  S  S   S  S  S   S  S  S   S  
--19p-14----19p-14----19p-14----19p-14----17p-14----17p-14----16p-14----16p-14--
---------14--------14--------14--------14--------14--------14--------14--------1
--------------------------------------------------------------------------------
--------------------------------------------------------------------------------
--------------------------------------------------------------------------------
--------------------------------------------------------------------------------


            |---3--|                                 
   Q.       S  S   S  S  S  T   T  T  T  S  S  S  S  
-----------14---------------------------------------|
--17b---------17p-14-17-14-17p-14----14-------------|
----------------------------------17----17-16-14-16-|
----------------------------------------------------|
----------------------------------------------------|
----------------------------------------------------|


              |---3---|   |---3---|         
   E    S  S  E   E   E   E   E   E   Q     
-------------------------------------------|
-------------------------------------------|
---L~--16-14-13--14--13--14--13------------|
---------------------------------14--14----|
-------------------------------------------|
-------------------------------------------|


   S   S  S  S   S  S  S   S  S  S   S  S  S   S  S  S   
--------------------------------------------------------|
-------------------19------------------19---------------|
--18s-16----16s-18----18s-16----16s-18----18s-16----16s-|
---------14------------------14------------------14-----|
--------------------------------------------------------|
--------------------------------------------------------|


   S  S  S   S  S  E    S  Q     E.    S  
-----------------------------------------|
-----19-------------------22-------------|
--18----18s-16----16s--21--L-----Ls---18-|
---------------14------------------------|
-----------------------------------------|
-----------------------------------------|


   S   S  S  S   S  S  S   S  S  S   S  S  S   S  S  S   
--------------------------------------------------------|
-------------------19------------------19---------------|
--18s-16----16s-18----18s-16----16s-18----18s-16----16s-|
---------14------------------14------------------14-----|
--------------------------------------------------------|
--------------------------------------------------------|


   S  S  S   S  S  S   S  S  S   S  S  S   S  S  S   S  
-------------------------------------------------------|
-----19------------------19------------------19--------|
--18----18s-16----16s-18----18s-16----16s-18----18s-16-|
---------------14------------------14------------------|
-------------------------------------------------------|
-------------------------------------------------------|


   S  S   S  S  S   S  S  S   S  S  S   S  S  S   S  S  
-------------------------------------------------------|
------------19------------------19------------------19-|
-----16s-18----18s-16----16s-18----18s-16----16s-18----|
--14------------------14------------------14-----------|
-------------------------------------------------------|
-------------------------------------------------------|


   S   S  S  S   S  S  S   S  S  S   S  S  S   S  S  S   
--------------------------------------------------------|
-------------------19------------------19---------------|
--18s-16----16s-18----18s-16----16s-18----18s-16----16s-|
---------14------------------14------------------14-----|
--------------------------------------------------------|
--------------------------------------------------------|


   S  S  S   S  S  S   S  S  S   S  S  S   S  S  S   S  
-------------------------------------------------------|
-----19------------------19------------------19--------|
--18----18s-16----16s-18----18s-16----16s-18----18s-16-|
---------------14------------------14------------------|
-------------------------------------------------------|
-------------------------------------------------------|


   S  S   S  S  S   S  S  S   S  S  S   S  S  S   S  S  
-------------------------------------------------------|
------------19------------------19------------------19-|
-----16s-18----18s-16----16s-18----18s-16----16s-18----|
--14------------------14------------------14-----------|
-------------------------------------------------------|
-------------------------------------------------------|


   S  S  S   S  S  S   S  S  S   S  S  S   S  S  S   S  
-------------------------------------------------------|
-----19------------------19------------------19--------|
--18----18s-16----16s-18----18s-16----16s-18----18s-16-|
---------------14------------------14------------------|
-------------------------------------------------------|
-------------------------------------------------------|


   S  S   S  S  S   S  S  S   S  S  S   S  S  S   S  S  
-------------------------------------------------------|
------------19------------------19------------------19-|
-----16s-18----18s-16----16s-18----18s-16----16s-18----|
--14------------------14------------------14-----------|
-------------------------------------------------------|
-------------------------------------------------------|


   S  S  S   S  S  S   S  S  S   S  S  S   S  S  S   S  
-------------------------------------------------------|
-----19------------------19------------------19--------|
--18----18s-16----16s-18----18s-16----16s-18----18s-16-|
---------------14------------------14------------------|
-------------------------------------------------------|
-------------------------------------------------------|


   S  S   S  S  S   S  S  S   S  S  S   S  S  S   S  S   
-------------------------------------------------------||
------------19------------------19------------------19-||
-----16s-18----18s-16----16s-18----18s-16----16s-18----||
--14------------------14------------------14-----------||
-------------------------------------------------------||
-------------------------------------------------------||




Duration Legend
---------------
W - whole
H - half
Q - quarter
E - 8th
S - 16th
T - 32nd
X - 64th
. - note dotted
|-n-|  - n-tuplets


Tablature Legend
----------------
L - tied note
x - dead note
g - grace note
(n) - ghost note
> - accentuded note
NH - natural harmonic
AH - artificial harmonic
TH - tapped harmonic
SH - semi harmonic
PH - pitch harmonic
h - hammer on
p - pull off
b - bend
br - bendRelease
pb - preBend
pbr - preBendRelease
brb - bendReleaseBend
\n/ - tremolo bar dip
\n - tremolo bar dive
-/n - tremolo bar Release up
/n\ - tremolo bar inverted dip
/n - tremolo bar return
-\n - tremolo bar Release down
S - shift slide
s - legato slide
/ -  slide into from below or out of upwards
\ -  slide into from above or out of downwards
~ - vibrato
W - wide vibrato
tr - trill
TP - tremolo picking
T - tapping
S - slap
P - pop
< - fade in
^ - brush up
v - brush down
Tap to rate this tab
 
# A B C D E F G H I J K L M N O P Q R S T U V W X Y Z