Song name
# A B C D E F G H I J K L M N O P Q R S T U V W X Y Z

Cinderella - Shake Me tab

Shake me acoustic.  Yea that's right, acoustic.
It's the catchy bluesy rendition from "VH1 Metal Stripped Vol 2".  
The tab is nowhere to be found, so here is my first tab ever.  


Capo on 2nd fret.  Tab is relative to capo.

Intro A

-4-4--4-4--4-4--4-4--|--4--3-2--0-----------|
---------------------|----------------------|
-4----4----4----4----|--4--3-2--0h1p0h1p0---|
---------------------|----------------------|
---------------------|----------------------|
---------------------|----------------------|

Intro B
      
---------------------|--------5-------------|
-5-5--5-5--5-5--5-5--|----4---4-------------|
---------------------|----------------------|
---------------------|-\4--4----------------|
-5----4----3----2----|----------------------|
---------------------|----------------------|


Verse 

It sounds like Tom is chicken pickin parts of the chords here

--------0-|--------3-|--------0-|--------2-|
--------0-|--------2-|--------0-|--------0-|
-----1----|-----2----|-----1----|-----2----|  X3
---2------|---2------|---2------|---1------|  
----------|-0--------|----------|-2--------|
-0--------|----------|-0--------|----------|

--------0-|--------3-|------2---|-2----2---|
--------0-|--------2-|------2---|-0----0---|
-----1----|-----2----|------3---|-2----2---| 
---2------|---2------|----4-----|-1----1---|  
----------|-0--------|---4------|-2----2---|
-0--------|----------|-2--------|----------|


Chorus

More chicken pickin...sound out the exact strings that Tom strikes.


----0-0-0-|----3-2-0-|----0-0-0-|---3---2--|
----3-2-0-|----2-2-2-|----3-2-0-|---0---0--|
----1-1-1-|-2--2-2-2-|----1-1-1-|---3---2--|
-2--------|-2--------|-2--------|--2---1---|
-2--------|-0--------|-2--------|-3---2----|
-0--------|----------|-0--------|----------|


----0-0-0-|----3-2-0-|-2--2--0--|
----3-2-0-|----2-2-2-|-2--0--0--|
----1-1-1-|-2--2-2-2-|-3--2--1--|
-2--------|-2--------|-4--1--2--|  ...To Intro B or bridge
-2--------|-0--------|-4--2--2--|     
-0--------|----------|-2-----0--|


Bridge


----------|----------|--0---0---|--0---0---|
--0---0---|--0---0---|--0---0---|--0---0---|
--0---0---|--0---0---|--1---1---|--1---1---|
--2---2---|--2---2---|--2---2---|--2---2---|
--0---0---|--0---0---|--2---2---|--2---2---|
----------|----------|--0---0---|--0---0---|


----------|----------|--2---2---|--2---2---|
--0---0---|--0---0---|--2---2---|--0---0---|
--0---0---|--0---0---|--3---3---|--2---2---|
--2---2---|--2---2---|--4---4---|--1---1---|
--0---0---|--0---0---|--4---4---|--2---2---| 
----------|----------|--2---2---|----------|

Solo and outro not done yet.



Tap to rate this tab
# A B C D E F G H I J K L M N O P Q R S T U V W X Y Z