Song name
# A B C D E F G H I J K L M N O P Q R S T U V W X Y Z

Cinderella - Last Mile tab

Tune to standard - isnt this fun you dont even hafta change tuning

INTRO-CLEAN with a little chorus
|---------------------------------|          |------------|
|---------------------------------|          |---7let ring|
|-----9------9--9------7----7---6-|          |---7let ring|
|---9--9------9------7----7-----6-|2x then   |---7let ring|
|-7------7---------5-----4-----4--|          |---5let ring|
|---------------------------------|          |------------|

VERSE-OVERDRIVE
|--------------------|
|--------------------|
|-2--2-2--7/5----5-5-|
|-2--2-2--7/5----5-5-|
|-0--0-0--5/3--0-3-3-|
|--------------------|

pre-chorus
|--------------------------------|
|--------------------------------|
|-----4------2--------5-------7--|
|--4-------2-------5-------7-----|
|2------0-------3-------5--------|
|--------------------------------|

CHORUS
|------------------------------------|
|------------------------------------|
|9---------------7--------7--------6-|
|9----------7-7-------7--------6-----|
|7----------5-------4--------4-------|
|------------------------------------|

thats about it. i dont know the solo cus im not that good n junk but ill post it up
when i figure it out. PEACE.
Tap to rate this tab
 
# A B C D E F G H I J K L M N O P Q R S T U V W X Y Z