Song name
# A B C D E F G H I J K L M N O P Q R S T U V W X Y Z

Cindy Doire - Peche De La Mer tab

-------------------------------------------------------------------------------
			     PÉCHÉ DE LA MER – Cindy Doire
-------------------------------------------------------------------------------
Tabbed by: Barry Miles

Tuning: Capo on 2nd

Je m'exuse apprepos les paroles, je ne suis pas vraiement francophone,
si vous voulez, laisse-moi savoire les vrai paroles, merci

Verse/Couplet:

Guitar 1:
  Em7                    Am7
e|----------------------|-------------------|
B|----------------------|-------------------|
G|----------------------|-------------------|
D|----------------------|-------------------|
A|-------2--------------|-3--2h3-2---0------|
E|-0-2-3----------------|-5-----------------|

Guitar 2:
e|-----------------------------|------------------|
B|-----3-----------------------|------------------|
G|-2/4---4\2-0----------0----0-|-2----0-----------|
D|-------------2----0-----2----|--------2--0---2--|
A|----------------2---2--------|------------------|
E|-----------------------------|------------------|

Em7                           Am7
 Il fait chaud, il fait froid, le fond gelé en désacroie
 Incertitude, inquetude, je suis figer là avec toi
 Je m'oublie dans ta nature, je m'éfface dans ta rature
 Immobile, fébrile, fragile, j'oublie le sens du mot tranquil

Chorus/Refrain:

C               B7                 Em7                  Cadd9
 C'est les plus beau péchés de la terre qui pousse dans fumiers de tes bennes
C         B7                Em7         B7
 Les plus beau péchés de la mer qui coule dans tes vennes



http://www.cindydoire.com/


************************************

| /   slide up
| \   slide down
| h   hammer-on
| p   pull-off
| ~   vibrato
| +   harmonic
| x   Mute note
| b   Bend
| pb  Pre-bend
| br  Bend release
| pbr Pre-bend release
| brb Bend release bend

************************************
Tap to rate this tab
 
# A B C D E F G H I J K L M N O P Q R S T U V W X Y Z