Song name
# A B C D E F G H I J K L M N O P Q R S T U V W X Y Z

Cinema Bizarre - Lovesongs They Kill Me Acoustic chords

Highlighted       Show chord diagrams
Intro:
   Gm      Dm      F       C
 e|3-------1-------1-------0-------|
 h|3-------3-------1-------1-------|
 g|3-------2-------2-------0-------|
 D|5-------0-------3-------2-------|
 A|5-------x-------x-------3-------|
 E|3-------x-------x-------x-------|

   Gm        Dm        F         C
 e|3-333-3-3-1-111-1-1-1-111-1-1-0-000-0-0-|
 h|3-333-3-3-3-333-3-3-1-111-1-1-1-111-1-1-|
 g|3-333-3-3-2-222-2-2-2-222-2-2-0-000-0-0-|
 D|5-555-5-5-0-000-0-0-3-333-3-3-2-222-2-2-|
 A|5-555-5-5-x-xxx-x-x-x-xxx-x-x-3-333-3-3-|
 E|3-333-3-3-x-xxx-x-x-x-xxx-x-x-x-xxx-x-x-| Intro end!!


Break between:
  Gm       Dm      F       C
 e|3-------1-------1-------0-------|
 h|3-------3-------1-------1-------|
 g|3-------2-------2-------0-------|
 D|5-------0-------3-------2-------|
 A|5-------x-------x-------3-------|
 E|3-------x-------x-------x-------|



Outro:
   Gm      Dm      F       C
 e|3-------1-------1-------0-------|
 h|3-------3-------1-------1-------|
 g|3-------2-------2-------0-------|
 D|5-------0-------3-------2-------|
 A|5-------x-------x-------3-------|
 E|3-------x-------x-------x-------| End!!
Tap to rate this tab
 
# A B C D E F G H I J K L M N O P Q R S T U V W X Y Z