Song name
# A B C D E F G H I J K L M N O P Q R S T U V W X Y Z

Cinema Sleep - Dead Poets Society tab

-------------------------------------------------------------------------------
                            Dead Poets' Society- Cinema Sleep
-------------------------------------------------------------------------------
Tabbed by: NickCoversMusic
Twitter: N_C_M_4
Youtube: NickCoversMusic
ALL DONE BY EAR! MISTAKES ARE GUARANTEED, BUT I TRIED!

Tuning:Drop C# (C#G#C#F#A#D#)

Intro: (x16)
|---------------------------------------------------------------------------|
|-----13-----10-----11-----10-----14p12-------------------------------------|
|---------------------------------------------------------------------------|
|-0-0----0-0----0-0----0-0----0-0-------------------------------------------|
|-0-0----0-0----0-0----0-0----0-0-------------------------------------------|
|-0-0----0-0----0-0----0-0----0-0-------------------------------------------|
  * *    * *    * *    * *    * *
Verse:
|----------------------------------------------------------------------------|
|----------------------------------------------------------------------------|
|----------------------------------------------------------------------------|
|-0-8-10-8-10-8-10-----------------------------------------------------------|
|-0-8-10-8-10-8-10-----------------------------------------------------------|
|-0-8-10-8-10-8-10-----------------------------------------------------------|
  * * *  * *  * *
Pre-Chorus
|---------------------------------------------------------------------------|
|---------------------------------------------------------------------------|
|---------------------------------------------------------------------------|
|-0~5~8~10~-----------------------------------------------------------------|
|-0~5~8~10~-----------------------------------------------------------------|
|-0~3~8~10~-----------------------------------------------------------------|

|---------------------------------------------------------------------------|
|-----13-----10-----11-----10-----14p12-------------------------------------|
|---------------------------------------------------------------------------|
|-0-0----0-0----0-0----0-0----0-0-------------------------------------------|
|-0-0----0-0----0-0----0-0----0-0-------------------------------------------|
|-0-0----0-0----0-0----0-0----0-0-------------------------------------------|
  * *    * *    * *    * *    * *

Chorus:
|---------------------------------------------------------------------------|
|---------------------------------------------------------------------------|
|---------------------------------------------------------------------------|
|-0-8-10-8-7----------------------------------------------------------------|
|-0-8-10-8-7----------------------------------------------------------------|
|-0-8-10-8-7----------------------------------------------------------------|

|---------------------------------------------------------------------------|
|-----13-----10-----11-----10-----14p12-------------------------------------|
|---------------------------------------------------------------------------|
|-0-0----0-0----0-0----0-0----0-0-------------------------------------------|
|-0-0----0-0----0-0----0-0----0-0-------------------------------------------|
|-0-0----0-0----0-0----0-0----0-0-------------------------------------------|
  * *    * *    * *    * *    * *

|---------------------------------------------------------------------------|
|---------------------------------------------------------------------------|
|---------------------------------------------------------------------------|
|-0-8-10-8p7h8-10-8-10------------------------------------------------------|
|-0-8-10-8p7h8-10-8-10------------------------------------------------------|
|-0-8-10-8p7h8-10-8-10------------------------------------------------------|

|---------------------------------------------------------------------------|
|-----13-----10-----11-----10-----14p12-------------------------------------|
|---------------------------------------------------------------------------|
|-0-0----0-0----0-0----0-0----0-0-------------------------------------------|
|-0-0----0-0----0-0----0-0----0-0-------------------------------------------|
|-0-0----0-0----0-0----0-0----0-0-------------------------------------------|
  * *    * *    * *    * *    * *

Replay Verse/Pre-Chorus/Chorus

Bridge: (Clean W/Delay)
|-------3-------------------------------------------------------------------|
|-----3---3-----------------------------------------------------------------|
|---3-----------------------------------------------------------------------|
|-1-------------------------------------------------------------------------|
|---------------------------------------------------------------------------|
|---------------------------------------------------------------------------|

Post-Bridge: (Distorted)
|---------------------------------------------------------------------------|
|---------------------------------------------------------------------------|
|---------------------------------------------------------------------------|
|-0-5-3-8-10-8-10-8---------------------------------------------------------|
|-0-5-3-8-10-8-10-8---------------------------------------------------------|
|-0-3-3-8-10-8-10-8---------------------------------------------------------|
  * * * * *  * *  *
|---------------------------------------------------------------------------|
|-----13-----10-----11-----10-----14p12-------------------------------------|
|---------------------------------------------------------------------------|
|-0-0----0-0----0-0----0-0----0-0-------------------------------------------|
|-0-0----0-0----0-0----0-0----0-0-------------------------------------------|
|-0-0----0-0----0-0----0-0----0-0-------------------------------------------|
  * *    * *    * *    * *    * *

Repeat Chorus

Outro:
|---------------------------------------|------------------------------------|
|-----13-----10-----11-----10-----14p12-|------------------------------------|
|---------------------------------------|------------------------------------|
|-0-0----0-0----0-0----0-0----0-0-------|-0-0--------------------------------|
|-0-0----0-0----0-0----0-0----0-0-------|-0-0--------------------------------|
|-0-0----0-0----0-0----0-0----0-0-------|-0-0--------------------------------|
  * *    * *    * *    * *    * *

Key:
* - Palm Mute
P - Pull Off
H - Hammer-On
~ - Let Ring

************************************
Tap to rate this tab
# A B C D E F G H I J K L M N O P Q R S T U V W X Y Z