Song name
# A B C D E F G H I J K L M N O P Q R S T U V W X Y Z

Cinematic Sunrise - Pulling A Piano From A Pond tab

Cinematic Sunrise
"Pulling A Piano From A Pond"

A lot of this is hard to hear over the pian so bear with me. I think it sounds just 
right though.
Feel free to correct me.

Drop D Tuning (DADGBE)
Intro:

-------------|
-------------|
-4--3--------|
-4--4---4--2-|
-2--2---4--2-|
--------4--2-|

Verse:

----------|------|-------------|
----------|-///--|-------------|
-4-4------|-\\\--|-4-----------|
------x15-|------|-4-4-6-9--x2-|
-2-2------|------|-2-4-6-9-----|
----------|------|---4-6-9-----|

Pre-chorus:

----------------------------------------------|
----------------------------------------------|
-44-------------------------------------------|
-44--444--66622222222222222222222222222222222-|
-22--444--66622222222222222222222222222222222-|
-----444--66622222222222222222222222222222222-|

----------------------------------------------|
----------------------------------------------|
-4444-----------------------------------------|
-4444--444--444-22222222222222222222222222222-|
-2222--444--444-22222222222222222222222222222-|
-------444--444-22222222222222222222222222222-|
                .............................

Chorus:

------------|
------------|
-4----------|
-4--4--6--4-|
-2--4--6--4-|
----4--6--4-|

*Verse*

*Pre-chorus*

*Chorus*

Bridge:

-------------------------------------------|
--------------no---------------------------|
----44-----4----distortion----4~-----------|
-2~-44--2~-4---------from-----4~-4~-6~-4~--|
-2~-22--2~-2-----------here---2~-4~-6~-4~--|
-2~-----2~-----------------------4~-6~-4~--|

Interlude (distortion comes back in here):

--------------------------|
--------------------------|
-4~-4--4~-----------------|
-4~-4--4~-222222222222222-|
-2~-2--2~-222222222222222-|
----------222222222222222-|
          ...............

Outro:

----------------------------|
----------------------------|
----44-----444-----44-----4-|
-2~-44--2~-444--2~-44--2~-4-|
-2~-22--2~-222--2~-22--2~-2-|
-2~-----2~------2~-----2~---|
Tap to rate this tab
# A B C D E F G H I J K L M N O P Q R S T U V W X Y Z