Guitaretab - guitar tabs
Song name
# A B C D E F G H I J K L M N O P Q R S T U V W X Y Z

Cinematic Sunrise - Umbrellas And Elephants tab

-----------------------------------------------------------
		Umbrellas and Elephants  Cinematic Sunrise
-----------------------------------------------------------
Tabbed by: Daniel Chevalier

This is a beautiful song by a beautiful band. I <3 cinsun.
Both guitars are in standard tuning. EADGBE

Guitar 1 intro
e|---00000000-00000000--00000000-00000000---------------|
B|---00000000-00000000--00000000-00000000---------------|
G|---99999999-99999999--66666666-22222222---------------| x2
D|---99999999-99999999--66666666-22222222---------------|
A|---77777777-00000000--44444444-00000000---------------|
E|------------------------------------------------------|

Guitar 2 intro
e|---54-----4-54--------54-----4-54---------------------|
B|-----575-7----575-75----575-7----575-75---------------|
G|--------4--------4--4------4--------4--4--------------|
D|------------------------------------------------------|
A|------------------------------------------------------|
E|------------------------------------------------------|

Guitar 1 verse1
e|---00000000-00000000-0000000000000000-----------------|
B|---00000000-00000000-0000000000000000-----------------|
G|---66666666-44444444-2222222222222222-----------------| x2
D|---66666666-44444444-2222222222222222-----------------|
A|---44444444-22222222-0000000000000000-----------------|
E|------------------------------------------------------|

Guitar 2 verse1
e|----0-0-0------0-0-0-----0-0-0-0------0-0-0-0---------|
B|---9-9-9-9/10-7-7-7-7/9-5-5-5-7-9/10-5-5-5-7-9/10-----|
G|------------------------------------------------------| x2
D|------------------------------------------------------|
A|------------------------------------------------------|
E|------------------------------------------------------|

Guitar 1 chorus pt.1
e|---0000-----0000-----0000--0000-----------------------|
B|---0000-----0000-----0000--0000-----------------------|
G|---1111-----1111-----2222--4444-----------------------| x2
D|---2222-----2222-----2222--4444-----------------------|
A|---2222-----2222-----0000--2222-----------------------|
E|---0000-----0000--------------------------------------|

Guitar 2 chorus pt.1
e|-------4h5p0----4h5p0-4----7--------------------------|
B|------------------------------------------------------|
G|------------------------------------------------------| x2
D|------------------------------------------------------|
A|------------------------------------------------------|
E|------------------------------------------------------|

Guitar 1 chorus pt.2
e|---0000-0000-0000-0000-0000-0000-0000-----------------|
B|---0000-0000-0000-0000-0000-0000-0000-----------------|
G|---6666-2222-1111-4444-6666-2222-4444-----------------|
D|---6666-2222-2222-4444-6666-2222-4444-----------------|
A|---4444-0000-2222-2222-4444-0000-2222-----------------|
E|-------------0000-------------------------------------|

Guitar 2 chorus pt.2
e|---4----5----7----5----4----5----7--------------------|
B|------------------------------------------------------|
G|------------------------------------------------------|
D|------------------------------------------------------|
A|------------------------------------------------------|
E|------------------------------------------------------|

Guitar 1 interlude
e|---x0000000-x0000000-x0000000-x0000000----------------|
B|---x0000000-x0000000-x0000000-x0000000----------------|
G|---x9999999-x9999999-x9999999-x9999999----------------|
D|---x9999999-x9999999-x9999999-x9999999----------------|
A|---x7777777-x7777777-x0000000-x0000000----------------|
E|---x--------x--------x--------x-----------------------|
e|---x0000000-x0000000-x0000000-x0000000----------------|
B|---x0000000-x0000000-x0000000-x0000000----------------|
G|---x6666666-x6666666-x2222222-x2222222----------------| x2
D|---x6666666-x6666666-x2222222-x2222222----------------|
A|---x4444444-x4444444-x0000000-x0000000----------------|
E|---x--------x--------x--------x-----------------------|
[ Tab from: http://www.guitaretab.com/c/cinematic-sunrise/177496.html ]
Guitar 2 interlude
e|---0-0-0-0-0-0-0-0-7-5-4-5-7-5-4-5--------------------|
B|----5-5-5-5-5-5-5-5-5-5-5-5-5-5-5-5-------------------|
G|------------------------------------------------------| x4
D|------------------------------------------------------|
A|------------------------------------------------------|
E|------------------------------------------------------|


Guitar 1 verse2
e|---00000000-00000000-0000000000000000-----------------|
B|---00000000-00000000-0000000000000000-----------------|
G|---66666666-44444444-2222222222222222-----------------| x2
D|---66666666-44444444-2222222222222222-----------------|
A|---44444444-22222222-0000000000000000-----------------|
E|------------------------------------------------------|

Guitar 2 verse2
e|----0-0-0------0-0-0-----0-0-0-0------0-0-0-0---------|
B|---9-9-9-9/10-7-7-7-7/9-5-5-5-7-9/10-5-5-5-7-9/10-----|
G|------------------------------------------------------| x2
D|------------------------------------------------------|
A|------------------------------------------------------|
E|------------------------------------------------------|

Guitar 1 chorus2 pt.1
e|---0000-----0000-----0000--0000-----------------------|
B|---0000-----0000-----0000--0000-----------------------|
G|---1111-----1111-----2222--4444-----------------------| x2
D|---2222-----2222-----2222--4444-----------------------|
A|---2222-----2222-----0000--2222-----------------------|
E|---0000-----0000--------------------------------------|

Guitar 2 chorus2 pt.1
e|-------4h5p0----4h5p0-4----7--------------------------|
B|------------------------------------------------------|
G|------------------------------------------------------| x2
D|------------------------------------------------------|
A|------------------------------------------------------|
E|------------------------------------------------------|

Guitar 1 chorus2 pt.2
e|---0000-0000-0000-0000-0000-0000-0000-----------------|
B|---0000-0000-0000-0000-0000-0000-0000-----------------|
G|---6666-2222-1111-4444-6666-2222-4444-----------------|
D|---6666-2222-2222-4444-6666-2222-4444-----------------|
A|---4444-0000-2222-2222-4444-0000-2222-----------------|
E|------------------------------------------------------|

Guitar 2 chorus2 pt.2
e|---4----5----7----5----4----5----7--------------------|
B|------------------------------------------------------|
G|------------------------------------------------------|
D|------------------------------------------------------|
A|------------------------------------------------------|
E|------------------------------------------------------|

Guitar 1 bridge
e|---0000-0000-0000-------------------------------------|
B|---0000-0000-0000-------------------------------------|
G|---xxxx-xxxx-xxxx-------------------------------------| x4
D|---6666-7777-9999-------------------------------------|
A|---6666-7777-9999-------------------------------------|
E|---4444-5555-7777-------------------------------------|

Guitar 2 bridge
e|---4-4-4-4-5-5-5-5-7-7-7-7-7-7-7-7--------------------|
B|----5-5-5-5-5-5-5-5-5-5-5-5-5-5-5-5-------------------|
G|------------------------------------------------------| x4
D|------------------------------------------------------|
A|------------------------------------------------------|
E|------------------------------------------------------|

Guitar 1 intro
e|---00000000-00000000--00000000-00000000---------------|
B|---00000000-00000000--00000000-00000000---------------|
G|---99999999-99999999--66666666-22222222---------------| x2
D|---99999999-99999999--66666666-22222222---------------|
A|---77777777-00000000--44444444-00000000---------------|
E|------------------------------------------------------|

Guitar 1 chorus3
e|---00000000-00000000-00000000-00000000----------------|
B|---00000000-00000000-00000000-00000000----------------|
G|---66666666-22222222-11111111-44444444----------------| x2
D|---66666666-22222222-22222222-44444444----------------|
A|---44444444-00000000-22222222-22222222----------------|
E|---------------------00000000-------------------------|

Guitar 1 end on
e|---0--------------------------------------------------|
B|---0--------------------------------------------------|
G|---6--------------------------------------------------|
D|---6--------------------------------------------------|
A|---4--------------------------------------------------|
E|------------------------------------------------------|
Related for Umbrellas And Elephants tab