Song name
# A B C D E F G H I J K L M N O P Q R S T U V W X Y Z

Cinematic Sunrise - Goodbye Friendship Hello Heartache tab

artist: cinematic sunrise
song: goodbye friendship,hello heartache


tuning: standard
key; F#
legend:

        ~ - sustain note
        \ - slide down
        / - slide up
        //- slide from nowhere



 -------------------------
|          INTRO          |
 -------------------------


Guitar 1:

e|--44-44444444---22--22222222---44-44444444---22-22222222---|
B|--44-66666666---22--22222222---66-66666666---22-22222222---|
G|--66-66666666---33--33333333---66-66666666---33-33333333---| (1x)
D|--66-66666666---44--44444444---66-66666666---44-44444444---|
A|--44-44444444---44--44444444---44-44444444---44-44444444---|
E|----------------22--22222222-----------------22-22222222---|

Guitar 2:

e|-----------------------------------------------------------|
B|--9--9--9----11-11-11-11-11-11-11---4-4-4---2-2-2-2-2-2-2--|
G|--10-10-10---11-11-11-11-11-11-11---4-4-4---3-3-3-3-3-3-3--| (2x)
D|--11-11-11---13-13-13-13-13-13-13---6-6-6---4-4-4-4-4-4-4--|
A|-----------------------------------------------------------|
E|-----------------------------------------------------------|



 -----------------------
|         VERSE         |
 -----------------------



Guitar 1:

e|--44-44444444---44-44444444---22-22222222---22-22222222---|
B|--66-66666666---66-66666666---22-22222222---22-22222222---|
G|--66-66666666---66-66666666---33-33333333---33-33333333---| (2x)
D|--66-66666666---66-66666666---44-44444444---44-44444444---|
A|--44-44444444---44-44444444---44-44444444---44-44444444---|
E|------------------------------22-22222222---22-22222222---|



 -------------------------
|         REFRAIN         |
 -------------------------


Guitar 1:

e|--11-44444444---44-22222222---11-44444444---22-22222222---|
B|--22-44444444---66-22222222---22-44444444---22-22222222---|
G|--33-44444444---66-33333333---33-44444444---33-33333333---| (2x)
D|--33-66666666---66-44444444---33-66666666---44-44444444---|
A|--11-66666666---44-44444444---11-66666666---44-44444444---|
E|-----44444444------22222222------44444444---22-22222222---|

Guitar 2:

e|--9---9---8---8---9---9--11--9----9---9---8---8---9---9---9---9----|
B|----9---9---9---9---9--9---9---9----9---9---9---9---9---9---9---9--|
G|-------------------------------------------------------------------| (2x)
D|-------------------------------------------------------------------|
A|-------------------------------------------------------------------|
E|-------------------------------------------------------------------|


 ---------------------------
|          CHORUS           |
 ---------------------------


Guitar 1:


e|--22-44444444---22-44444444---22-44444444---44-44444444444444---|
B|--22-66666666---22-44444444---22-66666666---44-44444444444444---|
G|--33-66666666---33-44444444---33-66666666---44-44444444444444---| (2x)
D|--44-66666666---44-66666666---44-66666666---66-66666666666666---|
A|--44-44444444---44-66666666---44-44444444---66-66666666666666---|
E|--22------------22-44444444---22------------44-44444444444444---|


Guitar 2: (distorted)

e|-----------------------------------------------------------------|
B|-----------------------------------------------------------------|
G|-----------------------------------------------------------------| (2x)
D|--44-111111111111---44-66666666---44-111111111111---66-66666666--|
A|--44-111111111111---44-66666666---44-111111111111---66-66666666--|
E|--22-9-9-9-9-9-9----22-44444444---22-9-9-9-9-9-9----44-44444444--|



REPEAT INTRO


 ---------------------------
|          VERSE 2          |
 ---------------------------



Guitar 1:

e|--44-44444444---44-44444444---22-22222222---22-22222222---|
B|--66-66666666---66-66666666---22-22222222---22-22222222---|
G|--66-66666666---66-66666666---33-33333333---33-33333333---| (2x)
D|--66-66666666---66-66666666---44-44444444---44-44444444---|
A|--44-44444444---44-44444444---44-44444444---44-44444444---|
E|------------------------------22-22222222---22-22222222---|


Guitar 2:

e|--//9~--9\4--4~--2~----//9~--9\4--4~--2~-----|
B|---------------------------------------------|
G|---------------------------------------------| (2x)
D|---------------------------------------------| 
A|---------------------------------------------|
E|---------------------------------------------|



REPEAT REFRAIN
REPEAT CHORUS



 -----------------------------
|           BRIDGE            |
 -----------------------------


Guitar 1:


e|--22-44444444---22-44444444---22-44444444---44-44444444444444---|
B|--22-66666666---22-44444444---22-66666666---44-44444444444444---|
G|--33-66666666---33-44444444---33-66666666---44-44444444444444---| (2x)
D|--44-66666666---44-66666666---44-66666666---66-66666666666666---|
A|--44-44444444---44-66666666---44-44444444---66-66666666666666---|
E|--22------------22-44444444---22------------44-44444444444444---|


Guitar 2:

e|------------------------------|
B|------------------------------|
G|--6~--8~-\\1~~--6~--8~--10~~--| (2x)
D|------------------------------|
A|------------------------------|
E|------------------------------|


Guitar 3 : (just a guitar harmony)

e|------------------------------|
B|------------------------------|
G|--6~--8~--10~~--6~--8~-\\1~~--| (2x)
D|------------------------------|
A|------------------------------|
E|------------------------------|



 -------------------------
|           ***           |
 -------------------------



Guitar 1:

e|--4444444444444444444---|
B|--4444444444444444444---|
G|--4444444444444444444---| (1x)
D|--6666666666666666666---|
A|--6666666666666666666---|
E|--4444444444444444444---|


Guitar 2:

e|-----------------------|
B|-----------------------|
G|---11~--13~--15~~------| (1x)
D|-----------------------|
A|-----------------------|
E|-----------------------|


Guitar 3:

e|-----------------------|
B|-----------------------|
G|---5~---6~---8~~-------| (1x)
D|-----------------------|
A|-----------------------|
E|-----------------------|



REPEAT CHORUS


 ------------------------
|         OUTRO          |
 ------------------------


Guitar 1:

e|--11--44--2~~----||
B|--22--44--2~~----||
G|--33--44--3~~----||
D|--33--66--4~~----||
A|--11--66--4~~----||
E|------44--2~~----||


Guitar 2: (distorted)

e|-----------------||
B|-----------------||
G|-----------------||
D|--88--66--4~~----||
A|--88--66--4~~----||
E|--66--44--2~~----||


Guitar 3 :

e|--9~--4~--2~~----||
B|-----------------||
G|-----------------||
D|-----------------||
A|-----------------||
E|-----------------||

____________________________________________________________________________
SONG STRUCTURE

intro
verse (goodbye friendship...)
refrain (i'll admit it...)
chorus (and then i run...)
interlude /intro
verse (no more phone calls...)
refrain (i'll admit it...)
chorus (and then i run...)
bridge (i'll run away from you)
***
chorus (and then i run...)
outro (wasn't it good enough for you)
____________________________________________________________________________

hey,uhmm...that's it...i'm pretty sure that this tab is correct!trust me. :D
BTW guitar 1 is,i think,acoustic...guitar 2 is electric guitar with distortion...
this is a pretty nice song,so have fun playing this XD
____________________________________________________________________________

That's all!
SEE YA! 
\m/
Tap to rate this tab
# A B C D E F G H I J K L M N O P Q R S T U V W X Y Z