Song name
# A B C D E F G H I J K L M N O P Q R S T U V W X Y Z

Cinerama - Cat Girl Tights tab

cat girl tights,
cinerama
submitted by rowan


|--------------------------------------------------------------------|
|--------------------------------------------------------------------|
|----4-0--4-0--4-0--4-0--4-0--4-0--4-0--4-0--4-0--4-0--4-0--4-0--4-0-|
|---2----2----2----2----1----1----1----1----0----0----0----0---------|
|---------------------------------------------------------------4----|
|--------------------------------------------------------------------|

|--------------------------------------------------------------------|
|--------------------------------------------------------------------|
|--4-0--4-0--4-0--4-0--4-0-------------------------------------------|
|--------------------------0-----------------------------------------|      
|-4----4----4----3----3----------------------------------------------|
|--------------------------------------------------------------------|

play this pretty much throughout the song or at least until the chorus
Tap to rate this tab
 
# A B C D E F G H I J K L M N O P Q R S T U V W X Y Z