Guitaretab - guitar tabs
Song name
# A B C D E F G H I J K L M N O P Q R S T U V W X Y Z

Circa Survive - Drug Dealer tab

-------------------------------------------------------------------------------
			     Drug Dealer - Anthony Green
-------------------------------------------------------------------------------
Tabbed by:Backtoground27
something like that...
Tuning:Whole Step Down (D Standard)

[ Tab from: http://www.guitaretab.com/c/circa-survive/108465.html ]
"If you allow something so unnecessary..."
"I used to mind that everyone i knew..."
e|-x--x----------------------------------------------------------------------------------|
B|-x--x----------3-----------------------------------------------------------------------|
G|-2--0--(2)(4)--3-----------------------------------------------------------------------|
D|-2--2---3--5---3-----------------------------------------------------------------------|
A|-0--3---3--5---------------------------------------------------------------------------|
E|-0--0---1--3---------------------------------------------------------------------------|
"If you could offer lonely love..."
"If you came around enough..."
e|------------------------------------------------------------------------------|
B|---1--------------------------------------------------------------------------|
G|---2--------------------------------------------------------------------------|
D|---3--------------------------------------------------------------------------|
A|---3--------------------------------------------------------------------------|
E|------------------------------------------------------------------------------|
"...You'd be like a god to us..."
e|--x--3--3---3---------------------------------------------------------------------|
B|--x--1--1---1---------------------------------------------------------------------|
G|--x--2--3---3---------------------------------------------------------------------|
D|--x--3--3---2---------------------------------------------------------------------|
A|----------------------------------------------------------------------------------|
E|----------------------------------------------------------------------------------|
     ?
e|------------------------------------------------------------------------------|
B|---5--------------------------------------------------------------------------|
G|---4--------------------------------------------------------------------------|
D|---6--------------------------------------------------------------------------|
A|------------------------------------------------------------------------------|
E|------------------------------------------------------------------------------|
Related for Drug Dealer tab
Advertisement will be closed in 10 seconds