Guitaretab - guitar tabs
Song name
# A B C D E F G H I J K L M N O P Q R S T U V W X Y Z

Circa Survive - On Letting Go tab

  (00:00)   (00:02)      
Eb|-----------12---|
Bb|-7h8------------|
Gb|----------------|
Db|----------------|
Ab|----------------|
Eb|----------------|
    
    (00:03)    (00:05)   (00:06)
Eb|--------------------------------|
Bb|--17----------13--------12------|
Gb|--------------------------------|
Db|--------------------------------|
Ab|--------------------------------|
Eb|--------------------------------|


    (00:14)
Eb|----------------|-------14-15----|
Bb|-151513h12-----|-12h13----------|
Gb|----------------|----------------|
Db|----------------|----------------|
Ab|----------------|----------------|
Eb|----------------|----------------|




[ Tab from: http://www.guitaretab.com/c/circa-survive/114356.html ]
Related for On Letting Go tab