Song name
# A B C D E F G H I J K L M N O P Q R S T U V W X Y Z

Circa Survive - Close Your Eyes To See tab

-------------------------------------------------------------------------------
			     Close Your Eyes To See - Circa Survive
-------------------------------------------------------------------------------
Tabbed by: Jake M (pinback)

Tuning: 1/2 step down

p= palm mute
/=slide up
\=slide down

Guitar 1
eb|------------------------|-------------------------|
Bb|------------------------|-------------------------|
Gb|------------------------|-------------------------|
Db|--------5----5-----5----|-5-----16----16----16----|
Ab|--5--7----7-----7-----7-|---/17----17----17----17\|
Eb|------------------------|-------------------------|

Guitar 2
eb|------------------------|--------------------------|
Bb|------------------------|--------------------------|
Gb|------------------------|--------------------------|
Db|------------------------|--------------------------|
Ab|--5--7\0----------------|--------------------------|
Eb|------------------------|000--------3-------5------|
                            pp

Tap to rate this tab
# A B C D E F G H I J K L M N O P Q R S T U V W X Y Z