Song name
# A B C D E F G H I J K L M N O P Q R S T U V W X Y Z

Circa Survive - I Felt Free Acoustic chords

Highlighted       Show chord diagrams
                                      I Felt Free (Acoustic) by Circa Survive

Tabbed by: Breck
Email: bge412@comcast.net

Tuning: Standard

This is the way I play it. To make it sound like it does on the album just make a 
few strumming tweaks.

Intro 
e|--------------------------------------------------------------------|
B|--------------------------------------------------------------------|
G|---5--x--5--4-4--4\9--x--9--9--9/7--x--7--7--7-7-7--x--7--7-7-7-----|
D|---4--x--4--4-4--4\8--x--8--8--8/6--x--6--6--6-6-6--x--6--6-6-6-----|
A|---2--x--2--2-2--2\6--x--6--6--6/4--x--4--4--4-4-4--x--4--4-4-4-----|
E|--------------------------------------------------------------------|


Chords used:

   Ab        F         Db
e|--4---------8----------4-----------|
B|--4---------10---------6-----------|
G|--5---------10---------6-----------|
D|--6---------10---------6-----------|
A|--6---------8----------4-----------|
E|--4--------------------------------|


Intro x2

Verse

Ab					      F      Db                 Ab
Nothing new to say, nothing to report cause the future happened yesterday

Ab						   F       Db           
If I could tell the truth, I would make you stay, but forever seems so far 

   Ab
away



Chorus (Same as intro)

I fell apart in your arms for the last time, and I felt free to do what I want, 

because of the things you told me, because of the things you told me, you told me, I 

Felt free



The rest of the song follows the same verse chorus verse pattern until the I will 
learn to live again part, which 
I havent quite figured out. When I do Ill post it here.

Also this is my first tab so be nice :D


************************************

| /   slide up
| \   slide down
| h   hammer-on
| p   pull-off
| ~   vibrato
| +   harmonic
| x   Mute note
| b   Bend
| pb  Pre-bend
| br  Bend release
| pbr Pre-bend release
| brb Bend release bend

************************************
Tap to rate this tab
 
# A B C D E F G H I J K L M N O P Q R S T U V W X Y Z