Song name
# A B C D E F G H I J K L M N O P Q R S T U V W X Y Z

Circa Survive - Spirit Of The Stairwell tab

THIS IS THE LEAD GUITAR PART TO THE SPIRIT OF THE STAIRWELL BY CIRCA SURVIVE.

This song is not difficult whatsoever.

I am also about 95% sure he plays this song with a slide.

Also included is the piano riff.



ACOUSTIC INTRO 0:00 - 0:11
eb:|----|----|----|----|----|
Bb:|----|----|----|----|---/|
Gb:|----|----|----|----|----|
Db:|----|----|----|----|----|
Ab:|----|----|----|----|----|
Eb:|----|----|----|----|----|


VERSE 0:11 - 1:19
eb:|--------|--------|--------|--------|--------|--------|
Bb:|9--(9)/-|12-(12)\|--------|--------|--------|--------|
Gb:|--------|--------|9~------|-----9/8|6---6---|8---8--/|
Db:|--------|--------|--------|--------|--------|--------| X6
Ab:|--------|--------|--------|--------|--------|--------|
Eb:|--------|--------|--------|--------|--------|--------|


PRE-CHORUS / CHORUS 1:19 - 1:50? (Honestly have no idea, its quiet tremolo picking with effects)
eb:|----|
Bb:|----|
Gb:|/11>|
Db:|----|
Ab:|----| tremolo picking forever. not sure how many bars.
Eb:|----|

PRE-CHORUS / CHORUS CONT'D
1:42             2:09
eb:|----|     eb:|-----|
Bb:|----|     Bb:|-----|
Gb:|6/8-|     Gb:|-----|
Db:|X/X-|     Db:|-----|
Ab:|4/6-|x1   Ab:|4/6-4| X2
Eb:|----|     Eb:|-----|

POST CHORUS 2:09 - 2:34  (this is the pretty much the same riff
                          that the piano plays throughout the
                          song, you'll be able to figure out the
                          differences)
eb:|--------|--------|--------|--------|--------|--------|
Bb:|9--12-9-|---12-9-|--------|--------|--------|--------|
Gb:|--------|11------|9--9-11-|11-9-9/8|6---6---|8---8--/|
Db:|--------|--------|--------|--------|--------|--------| 
Ab:|--------|--------|--------|--------|--------|--------|
Eb:|--------|--------|--------|--------|--------|--------|
 
eb:|--------|---1212^---|--------|--------|--------|--------|
Bb:|9--12-9-|---1212^-9-|--------|--------|--------|--------|
Gb:|--------|11---------|9--9-11-|11-9-9/8|6---6---|8---8--/|
Db:|--------|-----------|--------|--------|--------|--------| X1
Ab:|--------|-----------|--------|--------|--------|--------|
Eb:|--------|-----------|--------|--------|--------|--------|

VERSE X4  2:34 - 3:19

PRE-CHORUS / CHORUS
3:42             4:09
eb:|----|     eb:|-----|
Bb:|----|     Bb:|-----|
Gb:|6/8-|     Gb:|-----|
Db:|X/X-|     Db:|-----|
Ab:|4/6-|x1   Ab:|4/6-4| X2
Eb:|----|     Eb:|-----|

POST CHORUS X1 4:11 - 4:34

VERSE X2 4:34 - 4:57

PIANO / ACOUSTIC / WEIRD SHIT OUTRO 4:57 - 5:31
Tap to rate this tab
# A B C D E F G H I J K L M N O P Q R S T U V W X Y Z