Song name
# A B C D E F G H I J K L M N O P Q R S T U V W X Y Z

Circa Survive - Frozen Creek tab

Keep in mind this is all relative to the capo on the 4th fret.
Some numbers may seem a bit out of alignment but they're apart of that certain chord.

You all can figure in the rhythm and rest of the slides and such.

So here are the verse chords :
E :0----------------|------------------|
B :0--3-/5--5--5----|-0--p3--/5--------|
G :0--------0--0--4-|-0---0--/0--------|
D :2--------0--0--5-|-2---2--/4--------|
A :2--------0--5--5-|-3---3--/5--------|
E :0--------5-----3-|-x---x------------|


Then end on this chord to switch into the chorus:
E :----------------|
B :0---------------|
G :0---------------|
D :2---------------|
A :3---------------|
E :x---------------|
These are the chords for the chorus:

E :----------------|
B :1-0--0--0--0----|
G :2-2--0--0--0----|
D :2-0--2--4--5----|
A :--2--3--5--7----|
E :----------------|

Solo here and or Verse. Verse repeats

Chorus again

During the chorus before the bridge on the last run through Brendan slides the last chord to:
E :----------------|
B :0---------------|
G :0---------------|
D :7---------------|
A :9---------------|
E :----------------|

Which then leads into the bridge:
E :----------------|
B :3---5--0--5-----|
G :0---0--0--0-----|
D :2---5--5--5-----|
A :2---5--7--5-----|
E :----------------|

Then that repeats and you end the bridge on this chord that leads into the chorus:
E :----------------|
B :3---------------|
G :0---------------|
D :2---------------|
A :2---------------|
E :----------------|

Then chorus repeats yada yada song ends. 
Tap to rate this tab
 
# A B C D E F G H I J K L M N O P Q R S T U V W X Y Z