Song name
# A B C D E F G H I J K L M N O P Q R S T U V W X Y Z

Circa Survive - Strange Terrain tab

Circa Survive
"Strange Terrain"
Blue Sky Noise
2010 Atlantic Recording

Tabbed by Blair
Standard Tuning: EADGBe
Rhythm guitar tab


Intro (listen to the song for rhythm if you're confused)
e --6------------9---------------6--------------9---------------|
B --6------------9---------------6--------------9---------------|
G --7----x8------10----x3--------7----x8--------10----x3--------|
D --8------------11--------------8--------------11--------------|
A --8------------11--------------8--------------11--------------|
E  -6------------9---------------6--------------9---------------|

e --2------------4---------------6-----------------------------|
B --2------------4---------------6-----------------------------|
G --3----x8------5----x3---------7----x8-----------------------|
D --4------------6---------------8-----------------------------|
A --4------------6---------------8-----------------------------|
E  -2------------4---------------6-----------------------------|


Verse (same as intro)
We read the signs completely backwards, and no one could see if we ended up where we
e --6------------9---------------6--------------9---------------|
B --6------------9---------------6--------------9---------------|
G --7----x8------10----x3--------7----x8--------10----x3--------|
D --8------------11--------------8--------------11--------------|
A --8------------11--------------8--------------11--------------|
E  -6------------9---------------6--------------9---------------|

needed to be        to find out          How it all works with so many partners....
e --2---------------4-------------------6-----------------------------|
B --2---------------4-------------------6-----------------------------|
G --3----x8---------5----x3-------------7----x8-----------------------|
D --4---------------6-------------------8-----------------------------|
A --4---------------6-------------------8-----------------------------|
E  -2---------------4-------------------6-----------------------------|

Pre-Chorus
Who's the one pounding the gears? Avoiding the crowds, keeping their ear to the ground
e ---6--------------------6-----------------4---------------4---------------|
B ---6--------------------6-----------------4---------------4---------------|
G ---8---x6---------------6-----x6----------6---------------5---------------|        x2
D ---8--------------------8-----------------6---------------6---------------|
A ---6--------------------8-----------------4---------------6---------------|
E  --6--------------------6-----------------4---------------4---------------|

Oh I have made a mistake, and I never learned, how to get back to the place, Ohhhh

Chorus
Where have all the signs gone?                                        (In our lives, in our lives)
e ---3--------------------2-----------------6---------------6---------------|
B ---3--------------------2-----------------6---------------6---------------|
G ---3---x6---------------3-----x6----------7-----x6--------8----x6---------|      x2
D ---5--------------------4-----------------8---------------8---------------|
A ---5--------------------4-----------------8---------------6---------------|
E  --3--------------------2-----------------6---------------6---------------|

Guitar parts are the same for the 2nd verse, pre chorus, and chorus.
Tap to rate this tab
 
# A B C D E F G H I J K L M N O P Q R S T U V W X Y Z