Song name
# A B C D E F G H I J K L M N O P Q R S T U V W X Y Z

Circa Survive - Imaginary Enemy tab

-------------------------------------------------------------------------------
			     Imaginary Enemy - Circa Survive
-------------------------------------------------------------------------------
Tabbed by:Looey
Email:lfseefeld@yahoo.com

Tuning:Drop D

e|----------------------------------15---------------------------------------|
B|/17--17-17--17-17-17-17--17-17--17--17-15--15-15--15-15-15-15--15-15-------|
G|---------------------------------------------------------------------------|
D|---------------------------------------------------------------------------|
A|---------------------------------------------------------------------------|
D|---------------------------------------------------------------------------|

e|--17----------------15----------------15----------------15---12--12-12-12--|
B|15--15-13--13-13--13--13-12--12-12--12--12-13--13-13--13--13-15--15-15-15--|
G|---------------------------------------------------------------------------|
D|---------------------------------------------------------------------------|
A|---------------------------------------------------------------------------|
D|---------------------------------------------------------------------------|

e|12-12-12------------12/19-------------10/17-------------15/17--------------|
B|15-15-15--12----12---------12----12----------15-----15---------15----15----|
G|--------------11--11-----------11---11-----------11---11-----------11--11--|
D|---------------------------------------------------------------------------|
A|---------------------------------------------------------------------------|
D|---------------------------------------------------------------------------|

e|15\12--------------15----------------15-----------------------b17--17-17---|
B|------13--13-13--13--13-12--12-12--12--12-13--13-13--13-13-13--------------|
G|---------------------------------------------------------------------------|
D|---------------------------------------------------------------------------|
A|---------------------------------------------------------------------------|
D|---------------------------------------------------------------------------|

e|17-17br17-15---------------------------------------------------------------|
B|-------------17~~~~--------------------------------------------------------|
G|---------------------------------------------------------------------------|
D|---------------------------------------------------------------------------|
A|---------------------------------------------------------------------------|
E|---------------------------------------------------------------------------|


************************************

| /   slide up
| \   slide down
| h   hammer-on
| p   pull-off
| ~   vibrato
| +   harmonic
| x   Mute note
| b   Bend
| pb  Pre-bend
| br  Bend release
| pbr Pre-bend release
| brb Bend release bend

************************************
Tap to rate this tab
 
# A B C D E F G H I J K L M N O P Q R S T U V W X Y Z