Song name
# A B C D E F G H I J K L M N O P Q R S T U V W X Y Z

Circa Survive - Meet Me In Montauk tab

--------------------------------------------------------------------------
			Meet Me In Montauk - Circa Survive
--------------------------------------------------------------------------
Tabbed by: glazeglaze

Tuning: standard

this is how anthony plays it live by himself; and the other tab is very wrong

intro:
e-0-0-0-0-0-0-0-0-0-0-0-0-0-0-0-0-0-|
b-0-0-0-0-0-0-0-0-0-0-0-0-0-0-0-0-0-|
g-0-0-0-0-0-0-0-0-0-0-0-0-0-0-0-0-0-|
d-x-x-x-x-x-x-x-x-x-x-x-x-x-x-x-x-x-|
a-5-5-5/9\7-7-7-/12\9-9-9-9-9-9-9-9-|
e-----------------------------------|

verse:
e-0-----0--------0-------------------|
b-0-----0--------0-------------------|
g-0-----0--------0-------------------|
d-x-----x--------x-------------------|
a-5-----7--------9-------------------|
e------------------------------------|

bridge:
e-0-----0--------0-------------------|
b-0-----0--------0-------------------|
g-9-----12--x2---5-------------------|
d-9-----12-------5-------------------|
a-x-----x--------x-------------------|
e------------------------------------|
Tap to rate this tab
 
# A B C D E F G H I J K L M N O P Q R S T U V W X Y Z