Song name
# A B C D E F G H I J K L M N O P Q R S T U V W X Y Z

Circa Survive - Suitcase tab

Band: Circa Survive
Song: Suitcase
Album: Violent Waves
Email: shempashland@yahoo.com

This is the new single off of Circa Survives new album Violent Waves.
Ive played this w Colin and Nick and for the most part this is correct.
I didnt add the lead part. This is a simple song so if you follow along 
to the recording youll figure out where the parts go.
Enjoy!


Tuning: Whole Step Down
DGCFAD

Am x02210
F  133211
Dm xx0321
C  x32010


Intro/Verses
  Am     C     F
|------------------------|
|------5-----8-----1-----|
|----5-----9-----2-------|
|--7----10-----3---------|
|------------------------|
|------------------------|


Chorus
   Dm F   Am
|--55-11--5555------------|
|--66-11--5555------------|
|--77-22--5555------------|
|--77-33--7777------------|
|--55-33--7777------------|
|-----11------------------|
"when you realize.."
Tap to rate this tab
 
# A B C D E F G H I J K L M N O P Q R S T U V W X Y Z