Song name
# A B C D E F G H I J K L M N O P Q R S T U V W X Y Z

Circa Survive - Suitcase tab

Natural tuning from what I can hear, possibly drop D. since
there are two guitarists in this band it was difficult to
distinguish guitar 1 and guitar 2 but i did my best, i hope
this helps. i didn't catch most of the second guitar so if
you have any improvements on this please email me @
codyljthomp@gmail.com

Guitar 1

h = hammer on
/ = tremolo pick
s = slide

Chorus

e--------------------------------------------------------------|
B--------------------------------------------------------------|
G--------------7---------------10--------------3---------------|
D------------7--------------10---------------3-----------------|
A----------5--------------8----------------1-------------------|
E--------------------------------------------------------------|



Verse

e--------------------------------------------------------------|
B--------------------------------------------------------------|
G--------------------------------------------------------------|
D--------------8----------------------------8------------------|
A----8h10-10/10--10/10/10/10/10--8h10-10/10--10/10/10/10/10----|
E--------------------------------------------------------------|



Solo Part 1 (X2)

e--15--------15------------------------------------------------|
B-----13-15-----13-15--13--11----------------------------------|
G-------------------------------12s15-12-12s15-12--------------|
D--------------------------------------------------------------|
A--------------------------------------------------------------|
E--------------------------------------------------------------|



Solo Part 2 (tremolo picking = /// )

e--15///-13//------13//-15///-13//------13//-18//-17/////-15//-|
B-------------15///---------------15///------------------------|
G--------------------------------------------------------------|
D--------------------------------------------------------------|
A--------------------------------------------------------------|
E--------------------------------------------------------------|



Solo Part 3 (still tremolo picking)

e--15///-13//------13//-15///-13//------13//-18//-17/////17-17-|
B-------------15///---------------15///------------------------|
G--------------------------------------------------------------|
D--------------------------------------------------------------|
A--------------------------------------------------------------|
E--------------------------------------------------------------|
Tap to rate this tab
 
# A B C D E F G H I J K L M N O P Q R S T U V W X Y Z