Song name
# A B C D E F G H I J K L M N O P Q R S T U V W X Y Z

Circa Survive - Ill Find A Way tab

Tuning: D Standard (D G C F A D)

Intro (w/ light dual-octave effect) - "If you choose to see..."
|--------------------------------------7-7----------10-10----|
|---7--7p5------7-7p5----7-7p5-------------------------------|
|--5-------5--5-------5-5------5----9-----9-----12-------12--|
|-5--------------------------------9---------/12-------------|
|------------------------------------------------------------|
|------------------------------------------------------------|
                                                                *

"...when you're alone."
|-------8-8--------8-8-----|
|----10------10-10-----10--|
|--9-----------9-----------|
|--------------------------|
|--------------------------|
|--------------------------| back to fig. 1 (*)

"Don't give in to wild currents..."
|----------------------------7----7--------------------------------------|
|----8-------8-----8---------------------5-5-----5-5----5-5------5----7--|
|------9------9------9-----7----7----------------------------------------|
|------------------------/5----5-------5-----5-5----5--5----5--5----7----|
|--7-------7-----7-------------------3--------3-------3-------3----5-----|
|------------------------------------------------------------------------| x2

"I'll always want to carry it all, love, find a way to..."
|-------------7-7------5-5-----------|
|------8-----------------------5-5---|
|-----7-----7----7---5----5----------|
|----8-----5-------3---------5----5--|
|--6------------------------3--------|
|------------------------------------|

Gtr. 2
|-----17--15----19-17--15---19-17--15---|
|---------------------------------------|
|---------------------------------------|
|---------------------------------------|
|---------------------------------------|
|---------------------------------------|


Back to verse
Gtr 1: See fig. 1

Gtr. 2
|----------0--0--------0--0---------------|
|---15--15-----15---15--------15---15-----|
|-----16----------16--------16---16--16---|
|-----------------------------------------|
|-----------------------------------------|
|-----------------------------------------|
|
v
|----------0--0-------0--0------------------------7---------|
|---15--15-------15---------15---17/----8p7-------------10--|
|-----16-------16--16-----16--16-----------7----7----7------|
|--------------------------------------------9--9-----------|
|-----------------------------------------------------------|
|-----------------------------------------------------------| x through verse

"Don't give in to wild currents.." (Gtr 2) (Gtr 1 see fig 3)
|----------------7---7--7-----10---10--10----10/12-12-12-12/15-15-15---|
|-----10--10---8---------8--8------------8-8---------------------------|
|---/9--9----99----9--9----9----9----9----9----------------------------|
|----------------------------------------------------------------------|
|----------------------------------------------------------------------|
|----------------------------------------------------------------------| x2, see below

End of first phrase play this:
|------------------------------------------------|
|------------------------------------------------|
|------7----9---9-9-7--------7---9--9-9-12-12----|
|-----9--9------------9-----9--9-----------------|
|------------------------------------------------|
|------------------------------------------------|

End of second phrase play this
|-------10----12---12-12-10----------10---12----12-12/15-15-----|
|----12----12----------------12---12---12-----------------------|
|---------------------------------------------------------------|
|---------------------------------------------------------------|
|---------------------------------------------------------------|
|---------------------------------------------------------------|


Chorus (Gtr 1 see fig 4) Gtr 2:
|---17----15------19-----17-----15------15----|
|-----15----15------15-----15-----15----------|
|-------17-----17-------------17-----17----17-|
|---------------------------------------------|
|---------------------------------------------|
|---------------------------------------------|
**

Solo 1:

Gtr 1
|-------------------------------------------|
|-------------------------------------------|
|----9-9-9-9--------------------------------|
|----9-9-9-9-*goes into intro progression*--|
|----7-7-7-7--------------------------------|
|----0-0-0-0--------------------------------|

Gtr 2:
|------------------------------------------------15p14----------------------------|
|----8h10p8---------------8h10p8---------------------15------15----15-15-17-17----|
|-----------9--7h9-7h9-----------9--7h9-7h9------------16--16---------------------|
|---------------------------------------------------------------------------------|
|---------------------------------------------------------------------------------|
|---------------------------------------------------------------------------------|
x2


Solo 2: Gtr 1 goes back to fig. 3

Gtr2 (w/octave below effect + some flange):
|------9----------------------------7-10-10-7-10-7-------10-10h12-15--17---17-------|
|--10---8--7--7--77h8p7---8-8h10-----------------10-/12----------------15---15-17---|
|------------------------9----------------------------------------------------------|
|-----------------------------------------------------------------------------------|
|-----------------------------------------------------------------------------------|
|-----------------------------------------------------------------------------------|

|---19-17p15/14--15-17-------------------------|
|-----------------------17-----15-17-----------|
|----------------------------16-------14b16----|
|----------------------------------------------|
|----------------------------------------------|
|----------------------------------------------|


"If you try and hide it..."
Gtrs go back to fig. 3

"Alone, you'll take me to the end..."
Gtr 1
|---0--------3-----------|
|---0--------3-----------|
|---1--------5-----------|
|---2--------5-----------|
|---2--------3-----------|
|---0--------3-----------| x 2

Gtr 2 (not going to count out how many times. Listen to the changes) heavy delay:
|------------------------------------------------------------------------|
|------------------------------------------------------------------------|
|-9999999999999911111111121212121212141414141414141616161616161616-------|
|-xxxxxxxxxxxxxxxxxxxxxxxxxxxxxxxxxxxxxxxxxxxxxxxxxxxxxxxxxxxxxxxx-------|
|-7777777777777799999999101010101010121212121212121414141414141414-------|
|------------------------------------------------------------------------| x2


Chorus: Gtr 2 plays (**), Gtr 1 plays:
|-----------33-3-3---1-1-1-1--00-0-0-|
|--4-4-4-4--33-3-3---1-1-1-1--11-1-1-|
|--3-3-3-3--00-0-0---4-4-4-4--00-0-0-|
|--1-1-1-1--00-0-0---3-3-3-3--22-2-2-|
|--1-1-1-1--22-2-2---3-3-3-3--33-3-3-|
|-----------33-3-3---1-1-1-1---------|

End of main song:
|-----------------------------------------|
|-----------------------------------------|
|-----------------------------------------|
|--9-9-9-9--------------------------------|
|--7-7-7-7-*let delay fade out*-----------|
|--0-0-0-0--------------------------------|



Outro (clean):
|---------------------------------------------|
|----10----12-14--9--9-----11-11-----5----5---|
|---------------------------------------------|
|---------------------------------------------|
|--9----11----12--7--7----9--9-----4----4-----|
|---------------------------------------------| x a bajillion.


All critiques are welcome, I left out a few small licks that are very hard to hear 
and would've taken ages to add. If anything needs to be added let me know. In the 
meantime, I plan to tab this entire album because nobody's done it yet. Thanks!
Tap to rate this tab
# A B C D E F G H I J K L M N O P Q R S T U V W X Y Z