Song name
# A B C D E F G H I J K L M N O P Q R S T U V W X Y Z

Circa Survive - Mandala tab

-------------------------------------------------------------------------------
                             Mandala - Circa Survive
-------------------------------------------------------------------------------
Tabbed by:.bears.r.kool.

Tuning:standard
intro
w/ delay
e|---3-----8----------------------------------------------------------------------|
B|---4-----8----------------------------------------------------------------------|
G|---5-----8----------------------------------------------------------------------|
D|--------------------------------------------------------------------------------|
A|--------------------------------------------------------------------------------|
E|--------------------------------------------------------------------------------|

verse 1
e|--------------------------------------------------------------------------------|
B|-----------------------------------6--8--6--------------------------------------|
G|---------8--7h8--7-------------------------8------------------------------------|
D|--/10------------------8--10----------------------------------------------------|
A|--------------------------------------------------------------------------------|
E|--------------------------------------------------------------------------------|

e|------------------------------------------------10------------------------------|
B|-----------------------------------6--8--6--------------------------------------|
G|---------8--7h8--7--------------------------------------------------------------|
D|--/10------------------8--10----------------------------------------------------|
A|--------------------------------------------------------------------------------|
E|--------------------------------------------------------------------------------|
x2

e|--------------------------------------------------------------------------------|
B|---9--8--8----------------9--8--8-----------------------------------------------|
G|------------------------------------------8--8h10-------------------------------|
D|---------------10--10-----------------------------------------------------------|
A|--------------------------------------------------------------------------------|
E|--------------------------------------------------------------------------------|

Chorus
e|----8---3---11--10--------3---3---8----11--10-----------------------------------|
B|----8---4-----------------4---4---8---------------------------------------------|
G|----8---5-----------------5---5---8---------------------------------------------|
D|--------------------------------------------------------------------------------|
A|--------------------------------------------------------------------------------|
E|--------------------------------------------------------------------------------|

e|----3---3---8-------------------------------------------------------------------|
B|----4---4---8-------------------------------------------------------------------|
G|----5---5---8-------7b8-----------7b8---10--------------------------------------|
D|-------------------------8--10--------------------------------------------------|
A|--------------------------------------------------------------------------------|
E|--------------------------------------------------------------------------------|

verse2 (same as verse 1)

chorus 2
e|----3----11--10-------3---8---3---11--10-------8--------------------------------|
B|----4-----------------4---8---4----------------8--------------------------------|
G|----5-----------------5---8---5----------------8--------------------------------|
D|--------------------------------------------------------------------------------|
A|--------------------------------------------------------------------------------|
E|--------------------------------------------------------------------------------|

e|--------------------------------------------------------------------------------|
B|---------------3-----5-----4p3--------------------------------------------------|
G|-----------3-----3-----3---------3----------------------------------------------|
D|----3/5-------------------------------------------------------------------------|
A|--------------------------------------------------------------------------------|
E|--------------------------------------------------------------------------------|

e|--------------------------------------------------------------------------------|
B|------------------8-----11-----9p8----------------------------------------------|
G|--------------8-----8-------8---------8-----------------------------------------|
D|-----5/10-----------------------------------------------------------------------|
A|--------------------------------------------------------------------------------|
E|--------------------------------------------------------------------------------|

e|--------------------------------------------------------------------------------|
B|--------------4-----6-----4-----------------------------------------------------|
G|----------5-----5-----5-----5---------------------------------------------------|
D|------6-------------------------------------------------------------------------|
A|--------------------------------------------------------------------------------|
E|--------------------------------------------------------------------------------|

e|--------------------------------------------------------------------------------|
B|--------------4-----6-----------------------------------------------------------|
G|----------5-----5-----5---------------------------------------------------------|
D|------5-------------------------------------------------------------------------|
A|--------------------------------------------------------------------------------|
E|--------------------------------------------------------------------------------|

e|--------------------------------------------------------------------------------|
B|-----------------3-----5-----4p3------------------------------------------------|
G|-------------3-----3-----3---------3--------------------------------------------|
D|------3/5-----------------------------------------------------------------------|
A|--------------------------------------------------------------------------------|
E|--------------------------------------------------------------------------------|

bridge
e|---1---/--3--3--3--3--3---1--1--1-----------------------------------------------|
B|---3--/---4--4--4--4--4---3--3--3-----------------------------------------------|
G|---3-/----5--5--5--5--5---3--3--3-----------------------------------------------|
D|--------------------------------------------------------------------------------|
A|--------------------------------------------------------------------------------|
E|--------------------------------------------------------------------------------|

e|----1--/--8----8----8----8----8----8----8---------------------------------------|
B|----3-/---9----9----9----9----9----9----9---------------------------------------|
G|----3/----10---10---10---10---10---10---10--------------------------------------|
D|--------------------------------------------------------------------------------|
A|--------------------------------------------------------------------------------|
E|--------------------------------------------------------------------------------|

outro(same as verses)

end on
e|--------------------------------------------------------------------------------|
B|-------8~-----------------------------------------------------------------------|
G|--------------------------------------------------------------------------------|
D|--------------------------------------------------------------------------------|
A|--------------------------------------------------------------------------------|
E|--------------------------------------------------------------------------------|
************************************

| /   slide up
| \   slide down
| h   hammer-on
| p   pull-off
| ~   vibrato
| +   harmonic
| x   Mute note
| b   Bend
| pb  Pre-bend
| br  Bend release
| pbr Pre-bend release
| brb Bend release bend

************************************
Tap to rate this tab
# A B C D E F G H I J K L M N O P Q R S T U V W X Y Z