Song name
# A B C D E F G H I J K L M N O P Q R S T U V W X Y Z

Circa Survive - Suitcase tab

I've seen some other tabs for this, just means I'm being slow on this project haha. I 
liked things about the other tabs, but decided to do it by my own ear. For instance, I 
like the intonation of the main riff being lower on the neck.

Really easy song, took me 5 minutes to listen through and pick out all the parts. There 
is a lot of cool leadwork in the background, though.


Tuning: Full step down (DGCFAD)

Intro/Verse
|----------0----------3-------------------------|
|-------1----------5------------1---------------|
|----2----------5-------------2-----------------|
|---------------------------3-------------------|
|-----------------------------------------------|
|-----------------------------------------------|

Chorus: Gtr 1 (only play first two notes before 1st chorus)
|--3---------------------------------------------------------------------|
|-----5------------------------------------------------------------------|
|------------------------------------------------------------------------|
|------------------------------------------------------------------------|
|---------------5---5----------------------------------------------------|
|-------------------------1---1-----5----5-8-5------3--5--3--------------|

Cont'd
|-----------------------------------------------------------------------|
|-----------------------------------------------------------------------|
|-----------------------------------------------------------------------|
|-----------------------------------------------------------------------|
|-------3---------------------------------------------------------------|
|----5----5----3-----3------1-------------------------------------------|

Chorus: Gtr 2
|-----------------------------------------------------------------------|
|---------------------------------------------------------5-------------|
|--------------5--------------------7-----------------------------------|
|---5-7-5-7----7-5-7-5-7-5-7----7-5-7-5-7-5-7---7-5-7-------------------|
|-----------------------------------------------------------------------|
|-----------------------------------------------------------------------|

This is played by Gtr 2 after the 2nd Chorus:
|------17-----------------17-------------------------------------------------------------------|
|----------15--17b18r17-------15--17b18r17--15-15-15-------------------------------------------|
|-------------------------------------------------------17--------------14/17-14-14/17-14------|
|----------------------------------------------------------------------------------------------|
|----------------------------------------------------------------------------------------------|
|----------------------------------------------------------------------------------------------|

|-17//-15//---------15//-17//-15//--------15//---20//-19//-------------------------------------|
|-------------17//--------------------17//-----------------20//----------------22//------------|
|-------------------------------------------------------------------21//-----------------------|
|----------------------------------------------------------------------------------------------|
|----------------------------------------------------------------------------------------------|
|----------------------------------------------------------------------------------------------|

Final Chorus, Gtr 2:
|------------------15-17--20------17-20-----------|--------------------------------------|
|-----13-15-17----------------17---------17-------|-----13-15-17--13--15p13--------------|
|-14----------------------------------------------|-14--------------------------14-------|
|-------------------------------------------------|--------------------------------------|
|-------------------------------------------------|--------------------------------------|
|-------------------------------------------------|--------------------------------------|
Tap to rate this tab
# A B C D E F G H I J K L M N O P Q R S T U V W X Y Z