Song name
# A B C D E F G H I J K L M N O P Q R S T U V W X Y Z

Circa Survive - Sharp Practice tab

Hi guys - Sorry I know some are waiting on me to finish tabbing this album, college is 
crazy and not letting me do much. I decided to sit down and knock out this one tonight, 
wasn't too hard. Let me know if there's any problems with it, as always. Great song, by the way.

Tuning - Drop C (C G C F A D)

Gtr 1: Intro (Play aggressively, low gain)
|----3--x-x--3-3-3-3-----7---7-7-7---|
|----4--x-x--4-4-4-4-----6---6-6-6---|
|----5--x-x--5-5-5-5-----7---7-7-7---|
|----5--x-x--5-5-5-5-----5---5-5-5---|
|----3--x-x--3-3-3-3-----------------|
|------------------------------------|

Gtr 2: Verse (Gtr 1 stays on intro)
|----------------------------------------------------------------------------------------------|
|----------------------------------------------------------------------------------------11-13-|
|-10p8-10--10/12--7-7~-----------10-8-7-----10p8-10-10/12--7-7~---------------12---------------|
|---------------------------8h10-------------------------------------8h10----------------------|
|----------------------------------------------------------------------------------------------|
|----------------------------------------------------------------------------------------------|

Gtr 1: Pre-Chorus "I have been there and done it a thousand times..."
|-----------------------------------------------------------------|
|-----------------------------------------------------------------|
|-----------------------------------------------------------------|
|-33333333333333335555555555555555566666666666666668888888888888--|
|-33333333333333335555555555555555566666666666666668888888888888--|
|-33333333333333335555555555555555566666666666666668888888888888--|

Gtr 2: Pre Chorus (octaves)
|-------------------------------------------------------------------|
|-------------------------------------------------------------------|
|---555555555555554444444444444447777777777777771010101010101010----|
|---xxxxxxxxxxxxxxxxxxxxxxxxxxxxxxxxxxxxxxxxxxxxxxxxxxxxxxxxxxx-----|
|---333333333333332222222222222225555555555555558888888888888888----|
|-------------------------------------------------------------------|

Gtr 1 Rhythm - Chorus (this is strummed many times)
|--------------------------------------------|
|--------------------------------------------|
|--------------------------------------------|
|----1--------5-------1------5---------------|
|----1--------5-------1------5---------------|
|----1--------5-------1------5---------------|

Cont'd
|-----------------------------------------------|
|-----------------------------------------------|
|-----------------------------------------------|
|---888888888--55555444---888888888--5555444----|
|---888888888--55555444---888888888--5555444----|
|---888888888--55555444---888888888--5555444----|





"Don't let them give you the run-around..."
|----------------|
|----------------|
|----------------|
|--0------1------|
|--0------1------|
|--0------1------|

Gtr 2 - Chorus "You get what you pay for..."
|-----------------------------------------------------------------------------------|
|-----------------(pb)13r11---------------------------------------------------------|
|-----10b12-------------------------------------------------------------------------|
|------------------------------------10b12-(w/slide)-8-10--7-7-7-8--8-8-10--7-7-7-7-|
|-----------------------------------------------------------------------------------|
|-----------------------------------------------------------------------------------|

|---------------------------------------------------------------------------|
|---------------------------------------------------------------------------|
|---------------------------------------------------------------------------|
|----(slide)-/4--4/5---5/8---8\7--(repeat slide phrase above)---------------|
|---------------------------------------------------------------------------|
|---------------------------------------------------------------------------|

Interlude back into verse - Gtr 2 solo (Gtr 1 on intro riff)
|-------------------------------------------------------------------------------------------|
|----13-----11----------13-----11------------------------11/--------------------------------|
|--------12-----12----------12----12------12-----------12----------8-----88---8-----7--7----|
|---------------------10----------------10----10-10-------------/10--10-----10----10--8---8-|
|-------------------------------------------------------------------------------------------|
|-------------------------------------------------------------------------------------------|


|--------------------------------------------------------------|
|--13-----11--------13----11-------------------------11/-------|
|-------12---12---------12---12------12----------12------------|
|-----------------10--------------10------10-10----------------|
|--------------------------------------------------------------|
|--------------------------------------------------------------|

|-------------------------------------------------|
|--8----------------------------------------------|
|----8----8h7---------7h8---p0--8h7~--------------|
|------10------8----8---------------------9~------|
|-----------------10------------------------------|
|-------------------------------------------------|

Verse 2
Chorus


Bridge

Gtr 1 - w/ some delay, hold out notes
|----------------------------------------------------------------------------|
|----------------------------------------------------------------------------|
|----------------------------------------------------------------------------|
|----7--8---5--4----7---8---10---12------------------------------------------|
|----------------------------------------------------------------------------|
|----------------------------------------------------------------------------|

Gtr 2 - With heavy delay, listen for aid
|----------------------------------------------------------------------------|
|----------------------------------------------------------------------------|
|-12\--11\---8\--7\--12\--11\--8\--7\----------------------------------------|
|----------------------------------------------------------------------------|
|-10\---9\----6\--5\--10\---9\---6\--5\--------------------------------------|
|----------------------------------------------------------------------------|

Gtr 2 - Delay doodling in L speaker, here is what sense I can make of it:
|----------------------------------------------------------------------------|
|---11-----10----------------11-10-------------------------------------------|
|-------10-----12------------------------------------------------------------|
|---------------------13-12-----------12-13-12-------------------------------|
|----------------------------------------------------------------------------|
|----------------------------------------------------------------------------|

Gtr 1 - Tremolo-pick octaves over doodling to end bridge
|----------------------------------------------------------------------------|
|----8----10---11----13-----15-----------------------------------------------|
|----x-----x----x-----x------x-----------------------------------------------|
|----5-----7----8-----10----12-----------------------------------------------|
|----------------------------------------------------------------------------|
|----------------------------------------------------------------------------|


That's all! Went by in a flash compared to Hitman and Find a Way. As always, send me 
corrections. Don't forget to rate and let me know if you found this helpful so I have 
motivation to continue!
Tap to rate this tab
 
# A B C D E F G H I J K L M N O P Q R S T U V W X Y Z