Song name
# A B C D E F G H I J K L M N O P Q R S T U V W X Y Z

Circa Survive - Think Of Me When They Sound tab

This one was requested, decided I'd finish it before I moved on to the rest of the album.

Tuning is standard, very nice soothing little tune. Pretty fun to play, too.

Intro - (NOTE: Intro is actually 3 separate guitar tracks)

This is Guitar 1 - this melody carries through the song (Fingerpicked)
|----------------------------------------------|
|------3---3p2---2----3p2----2----3p2---2------|
|----------------------------------------------|
|---0----0-----0---0-------0---0------0----0---|
|-2--------2----------2-----------2------------|
|----------------------------------------------|

|----------------------------------------2-------2-----|
|------2----2p0----0-----2p0------0--------------------|
|------------------------------------------------------|
|---0----0------0-----0-------0------0------0-------0--|
|-0---------0------------0---------------0------0------|
|------------------------------------------------------|

Guitar 2 - Backing track 1
|------------------------------------------|
|------------------------------------------|
|------------------------------------------|
|-9-9-9-9-7-7-9----------------------------|
|----------------9-9-9-9-9-9-9-9-----------|
|------------------------------------------|

Guitar 3 - Backing track 2
|------------------------------------------|
|------------------------------------------|
|--7-7-7-7-6-6-7---------------------------|
|-----------------7-7-7-7-7-7-7-7----------|
|------------------------------------------|
|------------------------------------------|


Verse - See Guitar 1's "Intro"

Backing tracks come back in for a moment

Verse 2 - Ditto

Bridge (Fingerpick)
|------------------------------------------|
|-0-----0---------1------1-0-----0---------|
|---0-----2-----2------------0-------------|
|-----------4--------2---------------------|
|------------------------------------------|
|-3---3---3---3---3----3---3---3-----------|


"Church bells..."
|------------------------------------------------|
|-0--------0---0--------0--0-------0--0------0---|
|----0------------0-----------0----------0-------|
|------------------------------------------------|
|------------------------------------------------|
|-0-----0------0-----0-----0----0-----0----0-----|

|-------------------------------------------------|
|-0-------0--0-------0--0--------0--0-------0-----|
|----0----------0----------0-----------0----------|
|-------------------------------------------------|
|-3----3-----3-----3----3-----3-----3-----3-------|
|-------------------------------------------------|


Outro - Gtr 1 returns to intro pattern, fade out


Pretty easy, would be a good candidate for a sing n' play. Send corrections, comment 
thoughts, rate the tab please! Thanks for using!
Tap to rate this tab
# A B C D E F G H I J K L M N O P Q R S T U V W X Y Z