Song name
# A B C D E F G H I J K L M N O P Q R S T U V W X Y Z

Circa Survive - Backmask tab

Standard Tuning


Guitar 1
[0:00]-[0:39]
|------------------|
|--10~-10~-11~-----|
|--11~-11~-12~-10~-|
|--9-~-9~--10~-11~-|
|--------------9-~-|
|------------------|

Guitar 2
[0:19]-[0:39]
|-----------------------------------|
|--11/13--20~----11/13--20~-22~-22~-|
|-----------------------------------|
|-----------------------------------|
|-----------------------------------|
|-----------------------------------|


Guitar 1
[0:39]-[1:14]
|------------------------------|
|------------------------------|
|-----------------------10-7~--|
|--8/17-\12-/15~--15\8~--------|
|------------------------------|
|------------------------------|
|
|------------------------------|
|------------------------------|
|------------------------------|
|--8/17-\12/15\10~--12-12\8-7b-|
|------------------------------|
|------------------------------|
|
|------------------------------|
|------------------------------|
|------------------------7~----|
|--8/17-\12-/15~--15\8~--------|
|------------------------------|
|------------------------------|
|
|------------------------------|
|------------------------------|
|-----------------------10-7~--|
|--8/17-\12-/15~--15\8~--------|
|------------------------------|
|------------------------------|

Guitar 2
[0:39]-[1:14]
|------------------------------|
|------------------------------|
|------------------------------|
|------------------------------|
|--8-/10~---12--13--\6~---3/5--|
|------------------------------|
|
|------------------------------|
|------------------------------|
|------------------------------|
|------------------------------|
|--8-/10~---12--13---17\10/15~-|
|------------------------------|
|
|------------------------------|
|------------------------------|
|------------------------------|
|------------------------------|
|--8-/10~---12--13--\6~---3/5--|
|------------------------------|
|
|------------------------------|
|------------------------------|
|------------------------------|
|------------------------------|
|--8-/10~---12--13---17\10/15~-|
|------------------------------|


Guitar 3
[0:56]-[1:14]
|--------18-18--------------------------------------|
|--15-15-------16-16-15-15-16-16-15-15-18-18-15-15--|
|---------------------------------------------------|
|---------------------------------------------------|
|---------------------------------------------------|
|---------------------------------------------------|
|
|--------18-18--------------------------------------|
|-----15-------16-16-15-15-13-13/15-15-13-13/15-15--|
|--17-----------------------------------------------|
|---------------------------------------------------|
|---------------------------------------------------|
|---------------------------------------------------|
|
|--------18-18--------------------------------------|
|-----15-------16-16-15-15-16-16-15-15-18-18-15-15--|
|--17-----------------------------------------------|
|---------------------------------------------------|
|---------------------------------------------------|
|---------------------------------------------------|
|
|--------18-18--------------------------------------|
|-----15-------16-16-15-15-13-13/15-15-13-13/15-15--|
|--17-----------------------------------------------|
|---------------------------------------------------|
|---------------------------------------------------|
|---------------------------------------------------|
Tap to rate this tab
# A B C D E F G H I J K L M N O P Q R S T U V W X Y Z