Guitaretab - guitar tabs
Song name
# A B C D E F G H I J K L M N O P Q R S T U V W X Y Z

Circa Survive - Act Appalled tab

Highlighted       Show chord diagrams
Circa Survive
Act Appalled
Juturna
2005
Submitted by: paramore_fans@yahoo.com

this is 100% correct!!! so please vote this as approve!!!

Key: Bb

Tuning: Standard EADGBe

Chords used:
Gm - 355333
Dm - xx0231
D -  xx0232
Eb - x68886
Bb - x13331
F -  133211
Cm - x35543
F# - 244322


Intro:
Gm   Dm
  We walk straight
Gm          Dm
  Weíre not like them


Interlude: Gm

Guitar 2:
e|------------------------------5~-|
B|-1---1---1---1---1---1---1----6~-|
G|---3---3---3---3---3---3---3-----|
D|---------------------------------|
A|---------------------------------|
E|---------------------------------|


Verse 1:
   Gm
To fool them in
Eb
Make it seem like
you're in trouble
Gm
Make a sound
Eb
Fake it enough
Gm                Eb
What made you so scared?
Gm
Maybe you're mistaken
        Eb
for someone who cares


Chorus:
Eb       Gm       F
If you remember remember
D
Iíve been trying to get
Eb
back to the center
Eb            Dm
Iím sure itís not
        D(hold)
like it was before


(Repeat Interlude 1)

[ Tab from: http://www.guitaretab.com/c/circa-survive/61404.html ]
Verse 2:
   Gm
To make them drink
Eb
Tell them that
itís only water
Gm
No one leaves
        Eb
Till we figure this out
Gm                Eb
What made you so scared?
Gm
Maybe you're mistaken
        Eb
for someone who cares


(Repeat Chorus)


Interlude 2: Until Bridge
      Gm          Eb           F#
e|-----------|-----------|-------------|
B|-------3---|-----------|-------------|
G|---------3-|-------7---|-------3-----|
D|-----5-----|---8-----8-|-----4---4---| x2
A|---5-------|-6---6-----|---4-------4-|
E|-3---------|-----------|-2-----------|
                  x2

Guitar 2:
       Gm          Eb       Eb       F#
e|--------10---|---------|-------|-------6-|
B|-8h10p8----8-|---------|-------|---------|
G|-------------|-10---10-|-8---8-|-7h8p7---|
D|-------------|---------|-------|---------|
A|-------------|---------|-------|---------|
E|-------------|---------|-------|---------|


Bridge:
Gm      Eb--F#
Patience
     Gm
Both we and our
Eb                F#
words are over produced
   Gm       Eb--F#
by influence
   Gm       Eb--F#
By influence
(Repeat)


Guitar 3: In "by influence"
e|--------|
B|--------|
G|-5/7--7-|
D|-x/x--x- x2
A|-3/5--5-|
E|--------|


Iím only asking


(Repeat Chorus)
Related for Act Appalled tab