Guitaretab - guitar tabs
Song name
# A B C D E F G H I J K L M N O P Q R S T U V W X Y Z

Circa Survive - Meet Me In Montauk tab

Ive been looking for this tab as well as House of Leaves for a while and I cant seem it 
one anywhere until yesterday. I was on some site where someone posted this tab but it 
liek it need alot of improvement?

This song is short enough as it is so it shouldnt take long to see some changes...


Intro/Verse

e-0-0-0-0-0-0-0-0-0-0-0-0-0-0-0-0-0-|
b-0-0-0-0-0-0-0-0-0-0-0-0-0-0-0-0-0-|
g-0-0-0-0-0-0-0-0-0-0-0-0-0-0-0-0-0-|
d-x-x-x-x-x-x-x-x-x-x-x-x-x-x-x-x-x-|
a-5-5-5/9\7-7-7-/12\9-9-9-9-9-9-9-9-|
e-----------------------------------|

[ Tab from: http://www.guitaretab.com/c/circa-survive/78992.html ]
then after 4 times of that you jump strait into a power chord with the top strings open...


e-0-0-0-0-0-0-0-0-0-0-0-0-0-0-0-0-|
b-0-0-0-0-0-0-0-0-0-0-0-0-0-0-0-0-|
g-0-0-0-0-0-0-0-0-0-0-0-0-0-0-0-0-|
d-9-9-9-9-9-9-9-\-7-7-7-7-7-7-7-7-|
a-7-7-7-7-7-7-7-\-5-5-5-5-5-5-5-5-|
e---------------------------------|

repeat that a few times.. you have to listen to the rthymn like always...

then from there i really dont know where to go its hard to figure it out, this is where 
needs the most improvement but if you understand the first 2 parts then please add on to 
tab!

thanks
-Jake
Related for Meet Me In Montauk tab
Meet Me In Montauk chords by Circa Survive