Song name
# A B C D E F G H I J K L M N O P Q R S T U V W X Y Z

Circa Survive - Stone Hearted Man tab

Intro
---0-------------------|
---0-------------------|
---7-------------------|
---9--let ring---------|
---9-------------------|
---x-------------------|

Verse
--0---------0-------------------0---------------0------------|
--0---------0-------------------0---------------0------------|
--5---------7-------------------5---------------0------------|
--7---------9 x12 downstrokes---7--strum--------7---x12------| downstrokes
--7---------9-------------------7---------------9------------|
--x---------x-------------------x---------------9------------|


"But you can't be a Stone-hearted man"
chorus
---0--------0-------0--------0-------|
---0--------0-------0--------0-------|
---4--------7-------5--------0-------|
---5--------9-------7--------2-------|
---5--------9-------7--------2-------|
---3--------x-------x--------0-------|

---0-------0--------0-----0-------|
---0-------0--------0-----0-------|
---7-------5--------0-----0-------|
---9-------7--------2-----2-------|
---9-------7--------2-----2-------|
---x-------x--------0-----0-------|


Bridge
-(0)-----(0)----------|
--0-------0-----------|
--0-------0-----------|
--4---/---2-----------|
--5---/---3-----------|
--x-------x-----------|

Verse
--0---------0-------------------0---------------0------------|
--0---------0-------------------0---------------0------------|
--5---------7-------------------5---------------0------------|
--7---------9 x12 downstrokes---7--strum--------7---x12------| downstrokes
--7---------9-------------------7---------------9------------|
--x---------x-------------------x---------------9------------|

and then strum this lots

---0------|
---0------|
---5------|
---7------|
---7------|
---x------|

Outro


---0-------0--------0-----|
---0-------0--------0-----|
---7-------5--------0-----|
---9-------7--------2-----|
---9-------7--------2-----|
---x-------x--------0-----|

---0--------0-------0---------------|
---0--------0-------0---------------|
---4--------7-------5---------------|
---5--------9-------7---------------|
---5--------9-------7---------------|
---3--------x-------x---------------|

---0-------0--------0-----|
---0-------0--------0-----|
---7-------5--------0-----|
---9-------7--------2-----|
---9-------7--------2-----|
---x-------x--------0-----|

-(0)-----(0)----------|
--0-------0-----------|
--0-------0-----------|
--4---/---2-----------|
--5---/---3-----------|
--x-------x-----------| do this a couple of times

Intro x1
Verse x1
Chrous x1
Bridge x4
Verse x1
Outro x1
Tap to rate this tab
# A B C D E F G H I J K L M N O P Q R S T U V W X Y Z