Song name
# A B C D E F G H I J K L M N O P Q R S T U V W X Y Z

Circa Survive - In The Morning And Amazing tab

Help us improve GuitareTab! Take a short survey!
-------------------------------------------------------------------------------
		In The Morning And Amazing - Circa Survive
-------------------------------------------------------------------------------
Tabbed by: Jesse
Email: Jss_montgomery@yahoo.com

Tuning: Standard


 play this part two times
e|--------------------------------------16p14-13h14-13---------------------|
B|-------------13h14-16--------------------------------14-14----14----14---|
G|----------15----------15--13h15--15p13---------------------15----15----15|
D|-------15----------------------------------------------------------------|
A|-13-16-------------------------------------------------------------------|
E|-------------------------------------------------------------------------|

 play once
e|----------------------------------------------------------------------|
B|-------------13h14-16-------------------------------------------------|
G|----------15----------15-13h15-15p13-15p13----13----13-15p13----13----|
D|-------15----------------------------------15----15----------15----15-|
A|-13-16----------------------------------------------------------------|
E|----------------------------------------------------------------------|

 play this part once
e|--------------------------------------16p14-13h14-13--------8-|
B|-------------13h14-16--------------------------------14-----11|
G|----------15----------15--13h15--15p13------------------15--10|
D|-------15-----------------------------------------------------|
A|-13-16--------------------------------------------------------|
E|--------------------------------------------------------------|

 play this part two times
e|--------------------------------------16p14-13h14-13---------------------|
B|-------------13h14-16--------------------------------14-14----14----14---|
G|----------15----------15--13h15--15p13---------------------15----15----15|
D|-------15----------------------------------------------------------------|
A|-13-16-------------------------------------------------------------------|
E|-------------------------------------------------------------------------|

 play once
e|----------------------------------------------------------------------|
B|-------------13h14-16-------------------------------------------------|
G|----------15----------15-13h15-15p13-15p13----13----13-15p13----13----|
D|-------15----------------------------------15----15----------15----15-|
A|-13-16----------------------------------------------------------------|
E|----------------------------------------------------------------------|

 play this part once
e|--------------------------------------16p14-13h14-13--------|
B|-------------13h14-16--------------------------------14-----|
G|----------15----------15--13h15--15p13------------------15--|
D|-------15---------------------------------------------------|
A|-13-16------------------------------------------------------|
E|------------------------------------------------------------|


e|-9--11-9--11-9--11-9--11----11----11--|
B|-11-11-11-11-11-11-11-11-------11-11--|
G|-10-10-10-10-10-10-10-10-10-------10--|
D|--------------------------------------|
A|--------------------------------------|
E|--------------------------------------|

 play this part two times
e|--------------------------------------16p14-13h14-13---------------------|
B|-------------13h14-16--------------------------------14-14----14----14---|
G|----------15----------15--13h15--15p13---------------------15----15----15|
D|-------15----------------------------------------------------------------|
A|-13-16-------------------------------------------------------------------|
E|-------------------------------------------------------------------------|

 play once
e|----------------------------------------------------------------------|
B|-------------13h14-16-------------------------------------------------|
G|----------15----------15-13h15-15p13-15p13----13----13-15p13----13----|
D|-------15----------------------------------15----15----------15----15-|
A|-13-16----------------------------------------------------------------|
E|----------------------------------------------------------------------|

 play this part once
e|--------------------------------------16p14-13h14-13--------|
B|-------------13h14-16--------------------------------14-----|
G|----------15----------15--13h15--15p13------------------15--|
D|-------15---------------------------------------------------|
A|-13-16------------------------------------------------------|
E|------------------------------------------------------------|

play this twice
e|-------------------------------------------------|
B|-------13h14-------13h14-------13h16-------13h16-|
G|----15----------15----------15----------15-------|
D|-15----------------------15----------------------|
A|-------------------------------------------------|
E|-------------------------------------------------|

Play once
e|-12b-12b-12b-12b-12b-12b-12b-|
B|-----------------------------|
G|-----------------------------|
D|-----------------------------|
A|-----------------------------|
E|-----------------------------|

e|-18-18-18-16-14-13----------------13-|
B|----------------------------13-14----|
G|-------------------13-13-15----------|
D|-------------------------------------|
A|-------------------------------------|
E|-------------------------------------|

Play once
e|--------------------------------------------------|
B|--------------------------------------------------|
G|-10-8--11-8-----8--11-10----8--11-10----8--11-10--|
D|-11-10-13-10-11-10-13-11-11-10-13-11-11-10-13-11--|
A|-------------13----------13----------13-----------|
E|--------------------------------------------------|

 play this part two times
e|--------------------------------------16p14-13h14-13---------------------|
B|-------------13h14-16--------------------------------14-14----14----14---|
G|----------15----------15--13h15--15p13---------------------15----15----15|
D|-------15----------------------------------------------------------------|
A|-13-16-------------------------------------------------------------------|
E|-------------------------------------------------------------------------|

 play once
e|----------------------------------------------------------------------|
B|-------------13h14-16-------------------------------------------------|
G|----------15----------15-13h15-15p13-15p13----13----13-15p13----13----|
D|-------15----------------------------------15----15----------15----15-|
A|-13-16----------------------------------------------------------------|
E|----------------------------------------------------------------------|

 play this part once
e|--------------------------------------16p14-13h14-13--------|
B|-------------13h14-16--------------------------------14-----|
G|----------15----------15--13h15--15p13------------------15--|
D|-------15---------------------------------------------------|
A|-13-16------------------------------------------------------|
E|------------------------------------------------------------|

 play this part two times
e|--------------------------------------16p14-13h14-13---------------------|
B|-------------13h14-16--------------------------------14-14----14----14---|
G|----------15----------15--13h15--15p13---------------------15----15----15|
D|-------15----------------------------------------------------------------|
A|-13-16-------------------------------------------------------------------|
E|-------------------------------------------------------------------------|

 play once
e|----------------------------------------------------------------------|
B|-------------13h14-16-------------------------------------------------|
G|----------15----------15-13h15-15p13-15p13----13----13-15p13----13----|
D|-------15----------------------------------15----15----------15----15-|
A|-13-16----------------------------------------------------------------|
E|----------------------------------------------------------------------|

 play this part once
e|--------------------------------------16p14-13h14-13--------|
B|-------------13h14-16--------------------------------14-----|
G|----------15----------15--13h15--15p13------------------15--|
D|-------15---------------------------------------------------|
A|-13-16------------------------------------------------------|
E|------------------------------------------------------------|

| /  slide up
| \  slide down
| h  hammer-on
| p  pull-off
| ~  vibrato
| +  harmonic
| x  Mute note
===============================================================================
Related for In The Morning And Amazing tab