Song name
# A B C D E F G H I J K L M N O P Q R S T U V W X Y Z

Circa Survive - Living Together tab

“Living Together”
By Circa Survive
tabbed by Ben G.

Tuned down 1/2 step (Eb-Ab-Db-Gb-Bb-eb)
| / slide up
| h hammer-on
| p pull-off
| ~ vibrato
| 0 play open string
| b^ bend up
| * let ring
_________________________________________________

INTRO (0:00)
Guitar 1 (Eckstrom)
e ----------------------------------------------|
B -12^---12^---14^-14^---14^---15^-15^----------|
G -14^---14^---16^-16^---16^---17^-17^----------|
D ----------------------------------------------|
A ----------------------------------------------|
E ----------------------------------------------|

e ----------------------------------------------|
B -12^---12^---14^-14^---14^---15^-15^----------|
G -14^---14^---16^-16^---16^---17^-17^----------|
D ----------------------------------------------|
A ----------------------------------------------|
E ----------------------------------------------|

e ----------------------------------------------|
B -12^-12^---7-7^-7^---7-7^-7^------------------|
G -14^-14^---9-9^-9^---9-9^-9^------------------|
D ----------------------------------------------|
A ----------------------------------------------|
E ----------------------------------------------|

e ----------------------------------------------|
B ---------3--2--0------------3-----2-----------|
G -----/4-----------2-----/4-----4-----4--------|
D ----------------------------------------------|
A ----------------------------------------------|
E ----------------------------------------------|


VERSE 1 (0:22)
e ----------------------------------------------|
B --------9-10-----5----5-----------7-----------|
G ----------------------------------------------|
D ----7--------------4----4-----6-----4---------|
A -/9---9------5--------------7---7-------------|
E ----------------------------------------------|

e ----------------------------------------------|
B --------9-10-----5----5-----------7-----------|
G ----------------------------------------------|
D ----7--------------4----4-----6-----4---------|
A -/9---9------5--------------7---7-------------|
E ----------------------------------------------|
e ----------------------------------------------|
B ----------------------------------------------|
G –-9*-----------------6*-----------------------|
D --x------------------x-----------------7p6----|
A –-7*-----------------4*-----------------------|
E ----------------------------------------------|

e ----------------------------------------------|
B ----------------------------------------------|
G --9*------------------------------------------|
D --x-------------------------------------------|
A --7*------------------------------------------|
E ----------------------------------------------|


CHORUS 1 (0:45)
e ------------------------------12^-------------|
B -10-9p7h9-10-9p7h9-/14-12-12------10-9-9-10---|
G --------------------------------------------9-|
D ----------------------------------------------|
A ----------------------------------------------|
E ----------------------------------------------|

e -----------------------------12^--------------|
B -10-9p7h9-10-9p7h9-/14-12-12-----10-9-9-10-12-|
G ----------------------------------------------|
D ----------------------------------------------|
A ----------------------------------------------|
E ----------------------------------------------|

e ----------------------------------------------|
B ----------------------------------------------|
G ----------------------------------------------|
D –2h4p2p0--------------2h4p2p0-----------------|
A ----------2--------------------2--------------|
E -------------2--2*-----------------2--2*------|

e ----------------------------------------------|
B -/10-9-9-9/7-7-7/5-5-5---10-9p7h9--10-9p7h9*--|
G ----------------------------------------------|
D ----------------------------------------------|
A ----------------------------------------------|
E ----------------------------------------------|


POST-CHORUS (1:15)
e ----------------------------------------------|
B -12^---12^---14^-14^---14^---15^-15^----------|
G -14^---14^---16^-16^---16^---17^-17^----------|
D ----------------------------------------------|
A ----------------------------------------------|
E ----------------------------------------------|

e ----------------------------------------------|
B -12^-12^---7-7^-7^---------3-----2------------|
G -14^-14^---9-9^-9^-----/4-----4-----4---------|
D ----------------------------------------------|
A ----------------------------------------------|
E ----------------------------------------------|


VERSE 2 (1:26)
e ----------------------------------------------|
B ----------------2-2-2-2-2-2-------------------|
G -------2-2-4-4---------------4-4-4-4-4--------|
D --2h4-----------------------------------------|
A ----------------------------------------------|
E ----------------------------------------------|

e ----------------------------------------------|
B ----------------2-2-2-2-2-2-3-3-2-2-2---------|
G -------2-2-4-4--------------------------------|
D --2h4-----------------------------------------|
A ----------------------------------------------|
E ----------------------------------------------|

e ----------------------------------------------|
B ----------------2-2-2-2-2-2-------------------|
G -------2-2-4-4---------------4-4-4-4-4--------|
D --2h4-----------------------------------------|
A ----------------------------------------------|
E ----------------------------------------------|

e ----------------------------------------------|
B ----------------2-2-2-2-2-2-3-3-2-2-2---------|
G -------2-2-4-4--------------------------------|
D --2h4-----------------------------------------|
A ----------------------------------------------|
E ----------------------------------------------|

e ----------------------------------------------|
B ----------------2-2-2-2-2-2-------------------|
G -------2-2-4-4---------------4-4-4-4-4--------|
D --2h4-----------------------------------------|
A ----------------------------------------------|
E ----------------------------------------------|

e ----------------------------------------------|
B ----------------2-2-2-2-2-2-3*----------------|
G -------2-2-4-4--------------------------------|
D --2h4-----------------------------------------|
A ----------------------------------------------|
E ----------------------------------------------|


CHORUS 2 (2:00)
e ------------------------------12^-------------|
B -10-9p7h9-10-9p7h9-/14-12-12------10-9-9-10---|
G --------------------------------------------9-|
D ----------------------------------------------|
A ----------------------------------------------|
E ----------------------------------------------|

e -----------------------------12^--------------|
B -10-9p7h9-10-9p7h9-/14-12-12-----10-9-9-10-12-|
G ----------------------------------------------|
D ----------------------------------------------|
A ----------------------------------------------|
E ----------------------------------------------|
e ----------------------------------------------|
B ----------------------------------------------|
G ----------------------------------------------|
D –2h4p2p0--------------2h4p2p0-----------------|
A ----------2--------------------2--------------|
E -------------2--2*-----------------2--2*------|

e ----------------------------------------------|
B -/10-9-9-9/7-7-7/5-5-5---10-9p7h9--10-9p7h9*--|
G ----------------------------------------------|
D ----------------------------------------------|
A ----------------------------------------------|
E ----------------------------------------------|


BRIDGE (2:31)
e --12^------------------12^--------------------|
B ------10--9-9--10-10-9-----10--9-9--10--5-----|
G ----------------------------------------------|
D ----------------------------------------------|
A ----------------------------------------------|
E ----------------------------------------------|

e --12^-----------------------------------------|
B ------10--9-9--10-10-9----14^--12-10-9-10-12--|
G ----------------------------------------------|
D ----------------------------------------------|
A ----------------------------------------------|
E ----------------------------------------------|

e –17^----------------------17^-----------------|
B -----15--14-14--15-15-14------15--14-14-15-12-|
G ----------------------------------------------|
D ----------------------------------------------|
A ----------------------------------------------|
E ----------------------------------------------|

e –17^------------------------------------------|
B -----15--14-14--15-15-14---14^--12-10-9-10-12-|
G ----------------------------------------------|
D ----------------------------------------------|
A ----------------------------------------------|
E ----------------------------------------------|


OUTRO (3:06)
e --12^-------------------12^-------------------|
B ------10--9-9--10-10-9------10--9-9--10-10-9--|
G ----------------------------------------------|
D ----------------------------------------------|
A ----------------------------------------------|
E ----------------------------------------------|

e --12^-----------------------------------------|
B ------10--9-9--10-10-9----14*-----------------|
G ----------------------------------------------|
D ----------------------------------------------|
A ----------------------------------------------|
E ----------------------------------------------|


INTRO (0:00)
GUITAR 2 (Frangicetto)
e ----------------------------------------------|
B ------9-10-------5----5----------7------------|
G ----------------------------------------------|
D -------------------4----4-----------4---------|
A ----9--------5----------------7---------------|
E ----------------------------------------------|

e ----------------------------------------------|
B ------9-10-------5----5----------7------------|
G ----------------------------------------------|
D -------------------4----4-----------4---------|
A ----9--------5----------------7---------------|
E ----------------------------------------------|

e ----------------------------------------------|
B --------9-10-----5----5----------7------------|
G ----------------------------------------------|
D ----7--------------4----4-----------4---------|
A --9---9------5----------------7---------------|
E ----------------------------------------------|

e ----------------------------------------------|
B --------9-10-----5----5----------7------------|
G ----------------------------------------------|
D ----7--------------4----4-----------4---------|
A --9---9------5----------------7---------------|
E ----------------------------------------------|


VERSE 1 (0:22)
e ----------------------------------------------|
B --------------------------------9*------12*---|
G ----------------------------------------------|
D ----------------------------------------------|
A --/9*-----------------------------------------|
E ----------------------------------------------|

e ----------------------------------------------|
B ---10*--------------------------9*------12*---|
G ----------------------------------------------|
D ----------------------------------------------|
A ----------------------------------------------|
E ----------------------------------------------|

e ---12*---------------9*--------------12*------|
B ----------------------------------------------|
G ----------------------------------------------|
D ----------------------------------------------|
A ----------------------------------------------|
E ----------------------------------------------|


CHORUS 1 (0:45)
e ----------------------------------------------|
B -----------------------------5----------------|
G --------6----------6--------------------------|
D ----------------------------------------------|
A -------------------------/5------5---7---9/---|
E ---5/7--------5/7-----------------------------|

e ----------------------------------------------|
B ----------------------------------------------|
G ----------------------------------------------|
D ----------------------------------------------|
A ----------------------------------------------|
E ---2---2-----0--0---0----0--------------------|

e ----------------------------------------------|
B -----------------------------5----------------|
G --------6----------6--------------------------|
D ----------------------------------------------|
A -------------------------/5------5---7---9/---|
E ---5/7--------5/7-----------------------------|

e ----------------------------------------------|
B ----------------------------------------------|
G ----------------------------------------------|
D ----------------------------------------------|
A ----------------------------------------------|
E ---2---2-----0--0---0----0--------------------|

e ----------------------------------------------|
B --------5-------5-----------------------------|
G ---4h6-----4h6------------2-------------------|
D --------------------2h4------2h4--------------|
A ----------------------------------------------|
E ----------------------------------------------|

e ----------------------------------------------|
B ----------------------------------------------|
G ---6----6----6----6------4----4----4----4-----|
D ------7----7----7----7------6----6----6----6--|
A ----------------------------------------------|
E ----------------------------------------------|

e ----------------------------------------------|
B --------5---------5---------------------------|
G ---4h6----6--4h6----6-------------------------|
D ------------------------2h4*------------------|
A ----------------------------------------------|
E ----------------------------------------------|


POST-CHORUS (1:15)
e ----------------------------------------------|
B ------9-10-------5----5----------7------------|
G ----------------------------------------------|
D -------------------4----4-----------4---------|
A ----9--------5----------------7---------------|
E ----------------------------------------------|
e ----------------------------------------------|
B ------9-10-------5----5----------7------------|
G ----------------------------------------------|
D -------------------4----4-----------4---------|
A ----9--------5----------------7---------------|
E ----------------------------------------------|


VERSE 2 (1:26)
e ----------------------------------------------|
B -------14------14------12-------------12------|
G --/14------14------14------14--14/13------11--|
D ----------------------------------------------|
A ----------------------------------------------|
E ----------------------------------------------|

e ----------------------------------------------|
B -10------10------10------10---------12-----13-|
G -----11------11------11------11/13------13----|
D ----------------------------------------------|
A ----------------------------------------------|
E ----------------------------------------------|

e ----------------------------------------------|
B -------14------14------12-------------12------|
G --/14------14------14------14--14/13------11--|
D ----------------------------------------------|
A ----------------------------------------------|
E ----------------------------------------------|

e ----------------------------------------------|
B -10------10------10------10--------9-----9----|
G -----11------11------11------11/9-----9---—9/-|
D ----------------------------------------------|
A ----------------------------------------------|
E ----------------------------------------------|

e ----------------------------------------------|
B -------14------14------12-------------12------|
G --/14------14------14------14--14/13------11--|
D ----------------------------------------------|
A ----------------------------------------------|
E ----------------------------------------------|

e ----------------------------------------------|
B -10------10------10------10---------12-----13-|
G -----11------11------11------11/13------13----|
D ----------------------------------------------|
A ----------------------------------------------|
E ----------------------------------------------|

e ----------------------------------------------|
B -------14------14------12-------------12------|
G --/14------14------14------14--14/13------11--|
D ----------------------------------------------|
A ----------------------------------------------|
E ----------------------------------------------|

e ----------------------------------------------|
B -10------10------10------10--------9-----9----|
G -----11------11------11------11/9-----9---—9/-|
D ----------------------------------------------|
A ----------------------------------------------|
E ----------------------------------------------|

e ---12*---------------9*--------------12*------|
B ----------------------------------------------|
G ----------------------------------------------|
D ----------------------------------------------|
A ----------------------------------------------|
E ----------------------------------------------|


CHORUS 2 (2:00)
e ----------------------------------------------|
B -----------------------------5----------------|
G --------6----------6--------------------------|
D ----------------------------------------------|
A -------------------------/5------5---7---9/---|
E ---5/7--------5/7-----------------------------|

e ----------------------------------------------|
B ----------------------------------------------|
G ----------------------------------------------|
D ----------------------------------------------|
A ----------------------------------------------|
E ---2---2-----0--0---0----0--------------------|

e ----------------------------------------------|
B -----------------------------5----------------|
G --------6----------6--------------------------|
D ----------------------------------------------|
A -------------------------/5------5---7---9/---|
E ---5/7--------5/7-----------------------------|

e ----------------------------------------------|
B ----------------------------------------------|
G ----------------------------------------------|
D ----------------------------------------------|
A ----------------------------------------------|
E ---2---2-----0--0---0----0--------------------|

e ----------------------------------------------|
B --------5-------5-----------------------------|
G ---4h6-----4h6------------2-------------------|
D --------------------2h4------2h4--------------|
A ----------------------------------------------|
E ----------------------------------------------|

e ----------------------------------------------|
B ----------------------------------------------|
G ---6----6----6----6------4----4----4----4-----|
D ------7----7----7----7------6----6----6----6--|
A ----------------------------------------------|
E ----------------------------------------------|

e ----------------------------------------------|
B --------5---------5---------------------------|
G ---4h6----6--4h6----6---2*--------------------|
D ----------------------------------------------|
A ----------------------------------------------|
E ----------------------------------------------|


BRIDGE (2:31) [Listen for strum pattern]
e ----------------------------------------------|
B ----------------------------------------------|
G --6---------------4----2----------------------|
D --x---------------x----x----------------------|
A --4---------------2----0----------------------|
E ----------------------------------------------|

e ----------------------------------------------|
B ----------------------------------------------|
G --9--------------------6----------------------|
D --x--------------------x----------------------|
A --7--------------------4----------------------|
E ----------------------------------------------|

e ----------------------------------------------|
B ----------------------------------------------|
G --9--------------------7---------6------------|
D --x--------------------x---------x------------|
A --7--------------------5---------4------------|
E ----------------------------------------------|

e ----------------------------------------------|
B ----------------------------------------------|
G --14-------------------13---------------------|
D --x--------------------x----------------------|
A --12-------------------11---------------------|
E ----------------------------------------------|

e ----------------------------------------------|
B ----------------------------------------------|
G --9----------13--------7----------13----------|
D --x----------x---------x----------x-----------|
A --7----------11--------9----------11----------|
E ----------------------------------------------|


OUTRO (3:06)
e ----------------------------------------------|
B ----------------------------------------------|
G --14*------------------14*--------------------|
D --x--------------------x----------------------|
A --12*------------------12*--------------------|
E ----------------------------------------------|

e ----------------------------------------------|
B ----------------------------------------------|
G --13*------------------9*---------------------|
D --x--------------------x----------------------|
A --11*------------------7*---------------------|
E ----------------------------------------------|

Any issues email me at gardfam@pghmail.com or AIM: PlayEchoes
Tap to rate this tab
# A B C D E F G H I J K L M N O P Q R S T U V W X Y Z