Song name
# A B C D E F G H I J K L M N O P Q R S T U V W X Y Z

Circa Survive - Oh Hello tab

Help us improve GuitareTab! Take a short survey!
OH, HELLO
As recorded by Circa Survive
(From the 2005 Album JUTURNA)

Transcribed by Cordarro Collins
	

Words and Music by Circa Survive
Arranged by Circa Survive

Gtr I (Eb Ab Db Gb Bb Eb) - 'Untitled'
Gtr II (Eb Ab Db Gb Bb Eb) - 'Untitled'
Gtr III (Eb Ab Db Gb Bb Eb) - 'Untitled'
Gtr IV (Eb Ab Db Gb Bb Eb) - 'Untitled'
Gtr V (Eb Ab Db Gb Bb Eb) - 'Untitled'

   Intro
    Q=184
    N.C.
   3/4
    Gtr I
                            ~                            ~~
    E E E Q   E   E E E  E  Q    E E E Q   E   E E E  E  Q    4x
||--------------|--------------|-------------|----------------||
||o-------------|--------------|-------------|---------------o||
||--------------|--------------|-------------|----------------||
||--------------|--------------|-------------|----------------||
||o-------------|--------------|-------------|---------------o||
||--5h7-5h7---5h|=7-5h7p(5)h7--|-5h7-5h7---5h|=7-5h7p(5)h7----||
|
|   Gtr II
|         ~~                           ~~
|   E E E Q.      Q   Q     Q    E Q   Q.      Q   Q     Q    4x
||--------------|--------------|-------------|----------------||
||o-------------|--------------|-------------|---------------o||
||--------7-----|--------------|-------------|----------------||
||--7-9-7-------|-----6--------|-------4-----|----------------||
||o-------------|-7---------7--|-7s5---------|-----4---------o||
||--------------|--------------|-------------|-5---------5/---||


           ~~                     ~~
  E  E  E  Q     E    E  E  q     Q
|-------------------|-------------------|
|-------------------|-------------------|
|-------------------|-------4-----4-----|
|----------4-----0--|-2--0--------------|
|-------------------|-------------------|
|-5--7--5-----------|-------------------|
|
| Gtr III
| TP TP TP TP TP TP   TP TP TP TP TP TP
| E  E  E  E  E  E    E  E  E  E  E  E
|-------------------|-------------------|
|-------------------|-------------------|
|-------------------|-------------------|
|-x\-x\-x\-x\-x\-x\-|-x\-x\-x\-x\-x\-x\-|
|-x\-x\-x\-x\-x\-x\-|-x\-x\-x\-x\-x\-x\-|
|-x\-x\-x\-x\-x\-x\-|-x\-x\-x\-x\-x\-x\-|


    N.C.
    Gtr I
                           ~                           ~
    E E E Q  E   E E E  E  Q    E E E Q  E   E E E  E  Q
||-------------|--------------|------------|---------------||
||o------------|--------------|------------|--------------o||
||-------------|--------------|------------|---------------||
||-------------|--------------|------------|---------------||
||o------------|--------------|------------|--------------o||
||--5h7-5h7--5h|=7-5h7p(5)h7--|-5h7-5h7--5h|=7-5h7p(5)h7---||
|
|   Gtr II
|                          ~                           ~
|   E E E Q  E   E E E  E  Q    E E E Q  E   E E E  E  Q
||-------------|--------------|------------|---------------||
||o------------|--------------|------------|--------------o||
||-------------|--------------|------------|---------------||
||-------------|--------------|------------|---------------||
||o------------|--------------|------------|--------------o||
||--5h7-5h7--5h|=7-5h7p(5)h7--|-5h7-5h7--5h|=7-5h7p(5)h7---||


 Verse
  N.C.                          N.C.(Bm/D)
  E   E    E    E    E    E      Q   Q   Q
|-----------------------------|-------------|
|-----------------------------|-12----------|
|-----------------------------|-----11------|
|-----------------------------|---------12--|
|-----------------------------|-------------|
|-7\-(7)\-(7)\-(7)\-(7)\-(7)\-|-------------|
|
|               ~~~~
| E   E    E    Q.               Q   Q   Q
|-----------------------------|-------------|
|-----------------------------|-------------|
|---------------7-------------|-------------|
|-7---9----7------------------|------6------|
|-----------------------------|--7-------7--|
|-----------------------------|-------------|


  N.C.           A
                           <
            ~~~~~~~~~~
  E Q  +E   Q     +Q.      Q.
|--------------|---------------------|
|--------------|---------------------|
|--------------|---------[11]b12r====|
|-7-9--(9)s12--|-(12)----------------|
|--------------|---------------------|
|--------------|---------------------|
|
|       ~~~~
| E Q   Q.         Q   E   E     E E
|--------------|---------------------|
|--------------|---------------------|
|--------------|---------------------|
|-------4------|---------------------|
|-7s5----------|---4---4---4-----4-4-|
|--------------|---5---5---5-----5-5-|


  N.C.            N.C.(B5)     N.C.         A
                                                      <
    ~~~~                        ~~~~~~~~~~~~~~~~~
   +H.            Q   Q   Q     H.           +Q.      Q.
|---------------|------------|------------|---------------------|
|---------------|--------12--|------------|---------------------|
|-(11)----------|----11------|-11---------|-(11)----[11]b12r====|
|---------------|-9----------|------------|---------------------|
|---------------|------------|------------|---------------------|
|---------------|------------|------------|---------------------|
|
|          ~~                        ~~
|   E  E E Q.     Q   Q   Q     E Q  Q.       Q   E   E     E E
|---------------|------------|------------|---------------------|
|---------------|------------|------------|---------------------|
|----------7----|------------|------------|---------------------|
|---7--9-7------|-----6------|-------4----|---------------------|
|---------------|-7-------7--|--7s5-------|---4---4---4-----4-4-|
|---------------|------------|------------|---5---5---5-----5-5-|


  N.C.                 N.C.(Bm/D)    N.C.           A
    ~~~~                                       ~~~~~~~~~~
   +H          +Q       Q   Q   Q    E Q  +E   Q     +E   E  E  E  E  E
|--------------------|-------------|--------------|---------------------|
|--------------------|-12----------|--------------|---------------------|
|-(11)--------(11)\--|-----11------|--------------|---------------------|
|--------------------|---------12--|-7-9--(9)s12--|-(12)-14-14-14-14-14-|
|--------------------|-------------|--------------|------12-12-12-12-12-|
|--------------------|-------------|--------------|------12-12-12-12-12-|
|
|          ~~                              ~~~~
|   E  E E Q.           Q   Q   Q    E Q   Q.         Q      E  E  E  E
|--------------------|-------------|--------------|---------------------|
|--------------------|-------------|--------------|---------------------|
|----------7---------|-------------|--------------|---------------------|
|---7--9-7-----------|------6------|-------4------|---------------------|
|--------------------|--7-------7--|-7s5----------|---4------4--4--4--4-|
|--------------------|-------------|--------------|---5------5--5--5--5-|


  N.C.             N.C.(B5/F#)   N.C.               A
                                 Gtr IV
                                 TPTP TP TP TP TP   TP TP TP TP TP TP
    Q    E  Q.      Q   Q   Q    E E  E  E  E  E    E  E  E  E  E  E
|----------------|-------------|------------------|-------------------|
|----------------|-------------|------------------|-------------------|
|----------------|-------------|------------------|-------------------|
|-/14s==16-16----|-16----------|-x\x\-x\-x\-x\-x\-|-x\-x\-x\-x\-x\-x\-|
|----------------|-----14------|-x\x\-x\-x\-x\-x\-|-x\-x\-x\-x\-x\-x\-|
|----------------|---------14--|-x\x\-x\-x\-x\-x\-|-x\-x\-x\-x\-x\-x\-|
|
|           ~~~                          ~~
|   E E  E  Q.      Q   Q   Q    E Q     Q.         Q     E  E  E  E
|----------------|-------------|------------------|-------------------|
|----------------|-------------|------------------|-------------------|
|-----------7----|-------------|------------------|-------------------|
|---7-9--7-------|------6------|---------4--------|-------------------|
|----------------|--7-------7--|-7s5--------------|-4-----4--4--4--4--|
|----------------|-------------|------------------|-5-----5--5--5--5--|


 Pre-Chorus
  B5/F#    B5        B5/F#   B5        B5/F#    B5        B5/F#   B5
  Gtr I
   Q     E  Q    E    Q    E  Q    E    Q     E  Q    E    Q    E  Q    E
|------------------|-----------------|------------------|-----------------|
|-12----12-12---12-|-12---12-12---12-|-12----12-12---12-|-12---12-12---12-|
|-11----11-11---11-|-11---11-11---11-|-11----11-11---11-|-11---11-11---11-|
|--9-----9--9----9-|--9----9--9----9-|--9-----9--9----9-|--9----9--9----9-|
|--9-----9---------|--9----9---------|--9-----9---------|--9----9---------|
|------------------|-----------------|------------------|-----------------|
|
| Gtr II
|  E  E  E  E E  E    E E  E  E E  E    E  E  E  E E  E    E E  E  E E  E
|------------------|-----------------|------------------|-----------------|
|------------------|-----------------|------------------|-----------------|
|------------------|-----------------|------------------|-----------------|
|-12-11-12--9-7--9-|----------7-9--7-|-12-11-12--9-7--9-|----------7-9--7-|
|------------------|--7-9--7---------|------------------|--7-9--7---------|
|------------------|-----------------|------------------|-----------------|


  B5/Esus4/F#
   E  E  E  E  E  E    Q    E  E  E  E
|-------------------|------------------|
|-12s10-10-10-10-10-|-10---10-10-10-10-|
|-11s=9--9--9--9--9-|--9----9--9--9--9-|
|--9--9--9--9--9--9-|--9----9--9--9--9-|
|--9--9--9--9--9--9-|--9----9--9--9--9-|
|-------------------|------------------|
|
|  E  E  E  E  E  E    E E  E  E  E  E
|-------------------|------------------|
|-------------------|------------------|
|-------------------|------------------|
|-12-11-12--9--7--9-|----------7--9--7-|
|-------------------|--7-9--7----------|
|-------------------|------------------|


     F#madd11
   E   E   E  E  E  E    Q    E  E  E  E
|---------------------|------------------|
|-10-(10)-10-10-10-10-|-10---10-10-10-10-|
|--9s=11--11-11-11-11-|-11---11-11-11-11-|
|--9--(9)--9--9--9--9-|--9----9--9--9--9-|
|--9--(9)--9--9--9--9-|--9----9--9--9--9-|
|---------------------|------------------|
|
|  E   E   E  E  E  E    E E  E  E  E  E
|---------------------|------------------|
|---------------------|------------------|
|---------------------|------------------|
|-12--11--12--9--7--9-|----------7--9--7-|
|---------------------|--7-9--7----------|
|---------------------|------------------|


  B5/F#    B5        B5/F#   B5        B5/F#    B5        B5/F#   B5
   Q     E  Q    E    Q    E  Q    E    Q     E  Q    E    Q    E  Q    E
|------------------|-----------------|------------------|-----------------|
|-12----12-12---12-|-12---12-12---12-|-12----12-12---12-|-12---12-12---12-|
|-11----11-11---11-|-11---11-11---11-|-11----11-11---11-|-11---11-11---11-|
|--9-----9--9----9-|--9----9--9----9-|--9-----9--9----9-|--9----9--9----9-|
|--9-----9---------|--9----9---------|--9-----9---------|--9----9---------|
|------------------|-----------------|------------------|-----------------|
|
|  E  E  E  E E  E    E E  E  E E  E    E  E  E  E E  E    E E  E  E E  E
|------------------|-----------------|------------------|-----------------|
|------------------|-----------------|------------------|-----------------|
|------------------|-----------------|------------------|-----------------|
|-12-11-12--9-7--9-|----------7-9--7-|-12-11-12--9-7--9-|----------7-9--7-|
|------------------|--7-9--7---------|------------------|--7-9--7---------|
|------------------|-----------------|------------------|-----------------|


  B5/Esus4/F#
   E  E  E  E  E  E    Q    E  E  E  E
|-------------------|------------------|
|-12s10-10-10-10-10-|-10---10-10-10-10-|
|-11s=9--9--9--9--9-|--9----9--9--9--9-|
|--9--9--9--9--9--9-|--9----9--9--9--9-|
|--9--9--9--9--9--9-|--9----9--9--9--9-|
|-------------------|------------------|
|
|  E  E  E  E  E  E    E E  E  E  E  E
|-------------------|------------------|
|-------------------|------------------|
|-------------------|------------------|
|-12-11-12--9--7--9-|----------7--9--7-|
|-------------------|--7-9--7----------|
|-------------------|------------------|


     F#madd11
   E   E   E  E  E  E    H.
|---------------------|--------------------|
|-10-(10)-10-10-10-10-|-10\----------------|
|--9s=11--11-11-11-11-|-11\----------------|
|--9--(9)--9--9--9--9-|--9\----------------|
|--9--(9)--9--9--9--9-|--9\----------------|
|---------------------|--------------------|
|
|  E   E   E  E  E  E    Q      +Q    +Q
|---------------------|--------------------|
|---------------------|--------------------|
|---------------------|--------------------|
|-12--11--12--9--7--9-|-13b14--(13)--(13)--|
|---------------------|--------------------|
|---------------------|--------------------|


 Chorus
  N.C.
                                                  ~~~~~~~~~
   E  E E Q  E     E  E Q  E E     Q   E +Q      +E    +H.
|--------------|---------------|---------------------|-------------|
|--------------|---------------|---------------------|-------------|
|--------------|---------------|---------------------|-------------|
|--------------|--------7------|---------------------|-------------|
|---------9--5-|---7--5----9-5-|---7s==9-(9)b10r=(9)-|-(9)---------|
|--5--7-5------|---------------|---------------------|-------------|
|
|  TP              TP              TP                   TP    TP
|  H.             +H.             +H.                   Q.    Q.
|--------------|---------------|---------------------|-------------|
|--------------|---------------|---------------------|-------------|
|-16-----------|-(16)----------|-(16)----------------|-19----18----|
|--x-----------|--(x)----------|--(x)----------------|--x-----x----|
|-14-----------|-(14)----------|-(14)----------------|-17----16----|
|--------------|---------------|---------------------|-------------|


  Gtr I
                                                               ~~~
   E  E E Q  E     E  E Q  E E     Q   E Q.       Q   +Q      +Q
|--------------|---------------|--------------|--------------------|
|--------------|---------------|--------------|--------------------|
|--------------|---------------|--------------|--------------------|
|--------------|--------7------|---------9----|--------------------|
|---------9--5-|---7--5----9-5-|---7s==9------|---9---(9)b10r=(9)--|
|--5--7-5------|---------------|--------------|--------------------|
|
| Gtr II
|  TP              TP              TP             TP
|  H.             +H.             +H.            +H.
|--------------|---------------|--------------|--------------------|
|--------------|---------------|--------------|--------------------|
|-14-----------|-(14)----------|-(14)---------|-(14)---------------|
|--x-----------|--(x)----------|--(x)---------|--(x)---------------|
|-12-----------|-(12)----------|-(12)---------|-(12)---------------|
|--------------|---------------|--------------|--------------------|
|
| Gtr V
|  TP              TP              TP             TP
|  H.             +H.             +H.            +H.
|-17-----------|-(17)----------|-(17)---------|-(17)---------------|
|--------------|---------------|--------------|--------------------|
|--------------|---------------|--------------|--------------------|
|--------------|---------------|--------------|--------------------|
|--------------|---------------|--------------|--------------------|
|--------------|---------------|--------------|--------------------|


  Gtr I
                                                  ~~~~~~~~~
   E  E E Q  E     E  E Q  E E     Q   E +Q      +E    +H        Q
|--------------|---------------|---------------------|---------------|
|--------------|---------------|---------------------|---------------|
|--------------|---------------|---------------------|---------------|
|--------------|--------7------|---------------------|-----------7s==|
|---------9--5-|---7--5----9-5-|---7s==9-(9)b10r=(9)-|-(9)-----------|
|--5--7-5------|---------------|---------------------|---------------|
|
| Gtr II
|  TP              TP              TP                   TP    TP
|  H.             +H.             +H.                   Q.    Q.
|--------------|---------------|---------------------|---------------|
|--------------|---------------|---------------------|---------------|
|-16-----------|-(16)----------|-(16)----------------|-19----18------|
|--x-----------|--(x)----------|--(x)----------------|--x-----x------|
|-14-----------|-(14)----------|-(14)----------------|-17----16------|
|--------------|---------------|---------------------|---------------|


  Gtr I
   Q    +E   E  +Q       H      +Q       E   Q   E  +E   E    H.
|--------------------|---------------|---------------------|--------|
|--------------------|---------------|---------------------|--------|
|-----------16-(16)--|---------------|---------------------|--------|
|-16---(16)----------|---------------|---------------------|--------|
|--------------------|--12-----(12)--|--12s=14--14-(14)-14-|-14\----|
|--------------------|---------------|---------------------|--------|
|
| Gtr II
|  TP                    TP              TP
|  H.                   +H.             +H.                   H.
|--------------------|---------------|---------------------|--------|
|--------------------|---------------|---------------------|--------|
|-14-----------------|-(14)----------|-(14)----------------|-14-----|
|--x-----------------|--(x)----------|--(x)----------------|--x-----|
|-12-----------------|-(12)----------|-(12)----------------|-12-----|
|--------------------|---------------|---------------------|--------|
|
| Gtr V
|  TP                    TP              TP
|  H.                   +H.             +H.                   H.
|-17-----------------|-(17)----------|-(17)----------------|-17-----|
|--------------------|---------------|---------------------|--------|
|--------------------|---------------|---------------------|--------|
|--------------------|---------------|---------------------|--------|
|--------------------|---------------|---------------------|--------|
|--------------------|---------------|---------------------|--------|


  N.C.
  Gtr I
   E   E  E  Q.      Q    Q    E        +E
|-----------------|-------------------------|
|-----------------|-------------------------|
|-----------------|----------[11]b11.5r(11)-|
|-----------12----|-11---14-----------------|
|-14--12-14-------|-------------------------|
|-----------------|-------------------------|
|
| Gtr II
|  Q.        Q.      H.
|-----------------|-------------------------|
|-----------------|-------------------------|
|-11--------------|-------------------------|
|------------9----|-11----------------------|
|-----------------|-------------------------|
|-----------------|-------------------------|


   E   E  E  Q.      Q    Q      E         +E
|-----------------|----------------------------|
|-----------------|----------------------------|
|-----------------|------------[11]b11.5==(11)-|
|-----------12----|-11---14--------------------|
|-14--12-14-------|----------------------------|
|-----------------|----------------------------|
|
|  Q.        Q.      Q.     Q.
|-----------------|----------------------------|
|-----------------|----------------------------|
|-11--------------|---------9------------------|
|------------9----|-11-------------------------|
|-----------------|----------------------------|
|-----------------|----------------------------|


   +E   +Q    Q.      H      +Q      E  Q   Q.      +H.
|------------------|--------------|--------------|-------------|
|------------------|--------------|--------------|-------------|
|-(11)r(11)--------|--------------|--------------|-------------|
|------------11----|--------------|--------------|-------------|
|------------------|-12-----(12)--|-12s14--14----|-(14)--------|
|------------------|--------------|--------------|-------------|
|
|   Q.        Q.      H.             Q.     Q.       Q    H
|------------------|--------------|--------------|-------------|
|------------------|--------------|--------------|-------10----|
|--11--------------|--------------|-11-----------|-------------|
|-------------9----|-11-----------|---------9----|--11---------|
|------------------|--------------|--------------|-------------|
|------------------|--------------|--------------|-------------|


   E   E  E  Q.      Q    Q    E        +E
|-----------------|-------------------------|
|-----------------|-------------------------|
|-----------------|----------[11]b11.5r(11)-|
|-----------12----|-11---14-----------------|
|-14--12-14-------|-------------------------|
|-----------------|-------------------------|
|
|  Q.        Q.      H.
|-----------------|-------------------------|
|-----------------|-------------------------|
|-11--------------|-------------------------|
|------------9----|-11----------------------|
|-----------------|-------------------------|
|-----------------|-------------------------|


   E   E  E  Q.      Q    Q      E         +E
|-----------------|----------------------------|
|-----------------|----------------------------|
|-----------------|------------[11]b11.5==(11)-|
|-----------12----|-11---14--------------------|
|-14--12-14-------|----------------------------|
|-----------------|----------------------------|
|
|  Q.        Q.      Q.     Q.
|-----------------|----------------------------|
|-----------------|----------------------------|
|-11--------------|---------9------------------|
|------------9----|-11-------------------------|
|-----------------|----------------------------|
|-----------------|----------------------------|


  N.C.
   +E   +Q    Q.      H      +Q      E  Q   Q.      +H.
|------------------|--------------|--------------|-------------|
|------------------|--------------|--------------|-------------|
|-(11)r(11)--------|--------------|--------------|-------------|
|------------11----|--------------|--------------|-------------|
|------------------|-12-----(12)--|-12s14--14----|-(14)--------|
|------------------|--------------|--------------|-------------|
|
|   H.                H.             E  Q   Q.       E Q  Q.
|------------------|--------------|--------------|-------------|
|--12--------------|--------------|--------------|-------------|
|------------------|--9-----------|--9s=7---7----|---7s6--6----|
|------------------|--------------|--------------|-------------|
|------------------|--------------|--------------|-------------|
|------------------|--------------|--------------|-------------|


  Bm          C#5        D5   C#5    E5   D5
    H.         H.        Q.   Q.     Q.   Q.
|-----------|----------|-----------|-----------|
|-----------|----------|-----------|-----------|
|-----------|----------|-----------|-----------|
|-(12)------|-11-------|-----------|-----------|
|-----------|----------|-----------|-----------|
|-----------|----------|-3----2----|-5----3/---|
|
|   H.         H.        Q.   Q.     Q.   Q.
|-----------|----------|-----------|-----------|
|---3-------|----------|-----------|-----------|
|---4-------|--6-------|-7----6----|-9----7----|
|---4-------|--6-------|-7----6----|-9----7----|
|---2-------|--4-------|-5----4----|-7----5----|
|-----------|----------|-----------|-----------|


 Verse
  N.C.                          N.C.(Bm/D)    N.C.        A
                                                   ~~~~~~~~~~
  E   E    E    E    E    E      Q   Q   Q    E Q  Q.     Q.    +Q        +E
|-----------------------------|-------------|-----------|---------------------|
|-----------------------------|-12----------|-----------|---------------------|
|-----------------------------|-----11------|------7----|---------------------|
|-----------------------------|---------12--|-7-9-------|-9-----(9)b9.5r==(9)-|
|-----------------------------|-------------|-----------|---------------------|
|-7\-(7)\-(7)\-(7)\-(7)\-(7)\-|-------------|-----------|---------------------|
|
|               ~~~~                               ~~
| E   E    E    Q.               Q   Q   Q    E Q  Q.     Q   E  E      E  E
|-----------------------------|-------------|-----------|---------------------|
|-----------------------------|-------------|-----------|---------------------|
|---------------7-------------|-------------|-----------|---------------------|
|-7---9----7------------------|------6------|------4----|---------------------|
|-----------------------------|--7-------7--|-7s5-------|-4---4--4------4--4--|
|-----------------------------|-------------|-----------|-5---5--5------5--5--|


  N.C.           N.C.(B5)     N.C.         A
                                                     <
   ~~~                         ~~~~~~~~~~~~~~~~~
  +H.            Q   Q   Q     H.           +Q.      Q.
|--------------|------------|------------|---------------------|
|--------------|--------12--|------------|---------------------|
|--------------|----11------|-11---------|-(11)----[11]b12r====|
|-(9)----------|-9----------|------------|---------------------|
|--------------|------------|------------|---------------------|
|--------------|------------|------------|---------------------|
|
|         ~~                        ~~
|  E  E E Q.     Q   Q   Q     E Q  Q.       Q   E   E     E E
|--------------|------------|------------|---------------------|
|--------------|------------|------------|---------------------|
|---------7----|------------|------------|---------------------|
|--7--9-7------|-----6------|-------4----|---------------------|
|--------------|-7-------7--|--7s5-------|---4---4---4-----4-4-|
|--------------|------------|------------|---5---5---5-----5-5-|


  N.C.                 N.C.(Bm/D)    N.C.           A
    ~~~~                                       ~~~~~~~~~~
   +H          +Q       Q   Q   Q    E Q  +E   Q     +E   E  E  E  E  E
|--------------------|-------------|--------------|---------------------|
|--------------------|-12----------|--------------|---------------------|
|-(11)--------(11)\--|-----11------|--------------|---------------------|
|--------------------|---------12--|-7-9--(9)s12--|-(12)-14-14-14-14-14-|
|--------------------|-------------|--------------|------12-12-12-12-12-|
|--------------------|-------------|--------------|------12-12-12-12-12-|
|
|          ~~                              ~~~~
|   E  E E Q.           Q   Q   Q    E Q   Q.         Q      E  E  E  E
|--------------------|-------------|--------------|---------------------|
|--------------------|-------------|--------------|---------------------|
|----------7---------|-------------|--------------|---------------------|
|---7--9-7-----------|------6------|-------4------|---------------------|
|--------------------|--7-------7--|-7s5----------|---4------4--4--4--4-|
|--------------------|-------------|--------------|---5------5--5--5--5-|


  N.C.             N.C.(B5/F#)   N.C.               A
                                 Gtr IV
                                 TPTP TP TP TP TP   TP TP TP TP TP TP
    Q    E  Q.      Q   Q   Q    E E  E  E  E  E    E  E  E  E  E  E
|----------------|-------------|------------------|-------------------|
|----------------|-------------|------------------|-------------------|
|----------------|-------------|------------------|-------------------|
|-/14s==16-16----|-16----------|-x\x\-x\-x\-x\-x\-|-x\-x\-x\-x\-x\-x\-|
|----------------|-----14------|-x\x\-x\-x\-x\-x\-|-x\-x\-x\-x\-x\-x\-|
|----------------|---------14--|-x\x\-x\-x\-x\-x\-|-x\-x\-x\-x\-x\-x\-|
|
|           ~~~                          ~~
|   E E  E  Q.      Q   Q   Q    E Q     Q.         Q     E  E  E  E
|----------------|-------------|------------------|-------------------|
|----------------|-------------|------------------|-------------------|
|-----------7----|-------------|------------------|-------------------|
|---7-9--7-------|------6------|---------4--------|-------------------|
|----------------|--7-------7--|-7s5--------------|-4-----4--4--4--4--|
|----------------|-------------|------------------|-5-----5--5--5--5--|


 Pre-Chorus
  Bm             C#5           D5   C#5    E5
  Gtr I
    Q.    Q.     Q.     Q.     H.           H.
|--------------|-------------|-----------|------------------|
|--------------|-------------|-----------|------------------|
|-/12----11----|-9----/11----|-7---------|-[7]--------------|
|---x-----x----|-x------x----|-x---------|--x---------------|
|-/10-----9----|-7-----/9----|-5---------|-[5]--------------|
|--------------|-------------|-----------|------------------|
|
| Gtr II
|   H.           H.            Q.   Q.      Q    Q     Q
|--------------|-------------|-----------|------------------|
|---3----------|-------------|-----------|------------------|
|---4----------|-6-----------|-7----6----|--9\--(9)\--(9)\--|
|---4----------|-6-----------|-7----6----|--9\--(9)\--(9)\--|
|---2----------|-4-----------|-5----4----|--7\--(7)\--(7)\--|
|--------------|-------------|-----------|------------------|


 Chorus
  N.C.
                                                  ~~~~~~~~~
   E  E E Q  E     E  E Q  E E     Q   E +Q      +E    +H.
|--------------|---------------|---------------------|-------------|
|--------------|---------------|---------------------|-------------|
|--------------|---------------|---------------------|-------------|
|--------------|--------7------|---------------------|-------------|
|---------9--5-|---7--5----9-5-|---7s==9-(9)b10r=(9)-|-(9)---------|
|--5--7-5------|---------------|---------------------|-------------|
|
|  TP              TP              TP                   TP    TP
|  H.             +H.             +H.                   Q.    Q.
|--------------|---------------|---------------------|-------------|
|--------------|---------------|---------------------|-------------|
|-16-----------|-(16)----------|-(16)----------------|-19----18----|
|--x-----------|--(x)----------|--(x)----------------|--x-----x----|
|-14-----------|-(14)----------|-(14)----------------|-17----16----|
|--------------|---------------|---------------------|-------------|


  Gtr I
                                                               ~~~
   E  E E Q  E     E  E Q  E E     Q   E Q.       Q   +Q      +Q
|--------------|---------------|--------------|--------------------|
|--------------|---------------|--------------|--------------------|
|--------------|---------------|--------------|--------------------|
|--------------|--------7------|---------9----|--------------------|
|---------9--5-|---7--5----9-5-|---7s==9------|---9---(9)b10r=(9)--|
|--5--7-5------|---------------|--------------|--------------------|
|
| Gtr II
|  TP              TP              TP             TP
|  H.             +H.             +H.            +H.
|--------------|---------------|--------------|--------------------|
|--------------|---------------|--------------|--------------------|
|-14-----------|-(14)----------|-(14)---------|-(14)---------------|
|--x-----------|--(x)----------|--(x)---------|--(x)---------------|
|-12-----------|-(12)----------|-(12)---------|-(12)---------------|
|--------------|---------------|--------------|--------------------|
|
| Gtr V
|  TP              TP              TP             TP
|  H.             +H.             +H.            +H.
|-17-----------|-(17)----------|-(17)---------|-(17)---------------|
|--------------|---------------|--------------|--------------------|
|--------------|---------------|--------------|--------------------|
|--------------|---------------|--------------|--------------------|
|--------------|---------------|--------------|--------------------|
|--------------|---------------|--------------|--------------------|


  Gtr I
                                                  ~~~~~~~~~
   E  E E Q  E     E  E Q  E E     Q   E +Q      +E    +H        Q
|--------------|---------------|---------------------|--------------|
|--------------|---------------|---------------------|--------------|
|--------------|---------------|---------------------|--------------|
|--------------|--------7------|---------------------|-----------7--|
|---------9--5-|---7--5----9-5-|---7s==9-(9)b10r=(9)-|-(9)----------|
|--5--7-5------|---------------|---------------------|--------------|
|
| Gtr II
|  TP              TP              TP                   TP    TP
|  H.             +H.             +H.                   Q.    Q.
|--------------|---------------|---------------------|--------------|
|--------------|---------------|---------------------|--------------|
|-16-----------|-(16)----------|-(16)----------------|-19----18-----|
|--x-----------|--(x)----------|--(x)----------------|--x-----x-----|
|-14-----------|-(14)----------|-(14)----------------|-17----16-----|
|--------------|---------------|---------------------|--------------|


  Gtr I
   Q    +E   E  +Q       H      +Q       E   Q   E  +E   E    H.
|--------------------|---------------|---------------------|--------|
|--------------------|---------------|---------------------|--------|
|-----------16-(16)--|---------------|---------------------|--------|
|-16---(16)----------|---------------|---------------------|--------|
|--------------------|--12-----(12)--|--12s=14--14-(14)-14-|-14\----|
|--------------------|---------------|---------------------|--------|
|
| Gtr II
|  TP                    TP              TP
|  H.                   +H.             +H.                   H.
|--------------------|---------------|---------------------|--------|
|--------------------|---------------|---------------------|--------|
|-14-----------------|-(14)----------|-(14)----------------|-14-----|
|--x-----------------|--(x)----------|--(x)----------------|--x-----|
|-12-----------------|-(12)----------|-(12)----------------|-12-----|
|--------------------|---------------|---------------------|--------|
|
| Gtr V
|  TP                    TP              TP
|  H.                   +H.             +H.                   H.
|-17-----------------|-(17)----------|-(17)----------------|-17-----|
|--------------------|---------------|---------------------|--------|
|--------------------|---------------|---------------------|--------|
|--------------------|---------------|---------------------|--------|
|--------------------|---------------|---------------------|--------|
|--------------------|---------------|---------------------|--------|


  N.C.
  Gtr I
   E   E  E  Q.      Q    Q    E        +E
|-----------------|-------------------------|
|-----------------|-------------------------|
|-----------------|----------[11]b11.5r(11)-|
|-----------12----|-11---14-----------------|
|-14--12-14-------|-------------------------|
|-----------------|-------------------------|
|
| Gtr II
|  Q.        Q.      H.
|-----------------|-------------------------|
|-----------------|-------------------------|
|-11--------------|-------------------------|
|------------9----|-11----------------------|
|-----------------|-------------------------|
|-----------------|-------------------------|


   E   E  E  Q.      Q    Q      E         +E
|-----------------|----------------------------|
|-----------------|----------------------------|
|-----------------|------------[11]b11.5==(11)-|
|-----------12----|-11---14--------------------|
|-14--12-14-------|----------------------------|
|-----------------|----------------------------|
|
|  Q.        Q.      Q.     Q.
|-----------------|----------------------------|
|-----------------|----------------------------|
|-11--------------|---------9------------------|
|------------9----|-11-------------------------|
|-----------------|----------------------------|
|-----------------|----------------------------|


   +E   +Q    Q.      H      +Q      E  Q   Q.      +H.
|------------------|--------------|--------------|-------------|
|------------------|--------------|--------------|-------------|
|-(11)r(11)--------|--------------|--------------|-------------|
|------------11----|--------------|--------------|-------------|
|------------------|-12-----(12)--|-12s14--14----|-(14)--------|
|------------------|--------------|--------------|-------------|
|
|   Q.        Q.      H.             Q.     Q.       Q    H
|------------------|--------------|--------------|-------------|
|------------------|--------------|--------------|-------10----|
|--11--------------|--------------|-11-----------|-------------|
|-------------9----|-11-----------|---------9----|--11---------|
|------------------|--------------|--------------|-------------|
|------------------|--------------|--------------|-------------|


   E   E  E  Q.      Q    Q    E        +E
|-----------------|-------------------------|
|-----------------|-------------------------|
|-----------------|----------[11]b11.5r(11)-|
|-----------12----|-11---14-----------------|
|-14--12-14-------|-------------------------|
|-----------------|-------------------------|
|
|  Q.        Q.      H.
|-----------------|-------------------------|
|-----------------|-------------------------|
|-11--------------|-------------------------|
|------------9----|-11----------------------|
|-----------------|-------------------------|
|-----------------|-------------------------|


   E   E  E  Q.      Q    Q      E         +E
|-----------------|----------------------------|
|-----------------|----------------------------|
|-----------------|------------[11]b11.5==(11)-|
|-----------12----|-11---14--------------------|
|-14--12-14-------|----------------------------|
|-----------------|----------------------------|
|
|  Q.        Q.      Q.     Q.
|-----------------|----------------------------|
|-----------------|----------------------------|
|-11--------------|---------9------------------|
|------------9----|-11-------------------------|
|-----------------|----------------------------|
|-----------------|----------------------------|


   +E   +Q    Q.      H      +Q      E  Q   Q.      +H.
|------------------|--------------|--------------|-------------|
|------------------|--------------|--------------|-------------|
|-(11)r(11)--------|--------------|--------------|-------------|
|------------11----|--------------|--------------|-------------|
|------------------|-12-----(12)--|-12s14--14----|-(14)--------|
|------------------|--------------|--------------|-------------|
|
|   H.                H.             E  Q   Q.       E Q  Q.
|------------------|--------------|--------------|-------------|
|--12--------------|--------------|--------------|-------------|
|------------------|--9-----------|--9s=7---7----|---7s6--6----|
|------------------|--------------|--------------|-------------|
|------------------|--------------|--------------|-------------|
|------------------|--------------|--------------|-------------|


  Bm          C#5        D5   C#5    E5   D5
    H.         H.        Q.   Q.     Q.   Q.
|-----------|----------|-----------|-----------|
|-----------|----------|-----------|-----------|
|-----------|----------|-----------|-----------|
|-(12)------|-11-------|-----------|-----------|
|-----------|----------|-----------|-----------|
|-----------|----------|-3----2----|-5----3----|
|
|   H.         H.        Q.   Q.     Q.   Q.
|-----------|----------|-----------|-----------|
|---3-------|----------|-----------|-----------|
|---4-------|--6-------|-7----6----|-9----7----|
|---4-------|--6-------|-7----6----|-9----7----|
|---2-------|--4-------|-5----4----|-7----5----|
|-----------|----------|-----------|-----------|


  E5
  Q.   Q.     W
|-----------|------*|
|-----------|------*|
|-----------|------*|
|-9\--------|------*|
|-----------|------*|
|-----------|------*|
|
| Q.   Q.     W
|-----------|------*|
|-----------|------*|
|-9\--------|------*|
|-9\--------|------*|
|-7\--------|------*|
|-----------|------*|



Duration Legend
---------------
W - whole; H - half; Q - quarter; E - 8th; S - 16th; T - 32nd; X - 64th; a - acciaccatura
+ - note tied to previous; . - note dotted; .. - note double dotted
Uncapitalized letters represent notes that are staccato (1/2 duration)
Irregular groupings are notated above the duration line
Duration letters will always appear directly above the note/fret number it represents the
duration for.  Duration letters with no fret number below them represent rests.  Multi-
bar rests are notated in the form Wxn, where n is the number of bars to rest for.  Low
melody durations appear below the staff

Tablature Legend
----------------
 h   - hammer-on
 p   - pull-off
 b   - bend
 pb  - pre-bend
 r   - bend release (if no number after the r, then release immediately)
 /\  - slide into or out of (from/to "nowhere")
 s   - legato slide
 S   - shift slide
 - natural harmonic
[n]  - artificial harmonic
n(n) - tapped harmonic
 ~   - vibrato
 tr  - trill
 T   - tap
 TP  - trem. picking
 PM  - palm muting
\n/  - tremolo bar dip; n = amount to dip
 \n  - tremolo bar down
 n/  - tremolo bar up
/n\  - tremolo bar inverted dip
 =   - hold bend; also acts as connecting device for hammers/pulls
 <> - volume swell (louder/softer)
 x   - on rhythm slash represents muted slash
 o   - on rhythm slash represents single note slash

Misc Legend
-----------
 |  - bar
||  - double bar
||o - repeat start
o|| - repeat end
*|  - double bar (ending)
 :  - bar (freetime)
 $  - Segno
 &  - Coda
Tempo markers -  = BPM(8/16=s8/s16), where s8 = swing 8ths, s16 = swing 16ths

Related for Oh Hello tab