Song name
# A B C D E F G H I J K L M N O P Q R S T U V W X Y Z

Circa Survive - The Glorious Nosebleed tab

THE GLORIOUS NOSEBLEED
As recorded by Circa Survive
(From the 2005 Album JUTURNA)

Transcribed by Cordarro Collins
	

Words and Music by Circa Survive
Arranged by Circa Survive

Gtr I (Eb Ab Db Gb Bb Eb) - 'Untitled'
Gtr II (Eb Ab Db Gb Bb Eb) - 'Untitled'
Gtr III (Eb Ab Db Gb Bb Eb) - 'Untitled'
Gtr IV (Eb Ab Db Gb Bb Eb) - 'Untitled'
Gtr V (Eb Ab Db Gb Bb Eb) - 'Untitled'

 Intro
  Q=139
  F#sus4/B                                                 Bm
 5/8
  Gtr I
   E E  Q   E     E E  E  +E   E       E E  Q   E     E  E  E  Q
|--------------|--------------------|--------------|------------------|
|--------------|--------------------|--------------|------------------|
|-11---11------|-11---11-(11)-------|-11---11------|-11-14-14-14\-----|
|--x----x------|--x----x--(x)-------|--x----x------|--x--x--x--x------|
|--9----9------|--9----9--(9)-------|--9----9------|--9-12-12-12\-----|
|----------(0)-|--------------(0)---|----------(0)-|------------------|
|
| Gtr II
|  E E  Q   E     E E  E  +E   S  S    E E  Q   E     E  E  Q     S S
|--9----9------|--9----9--(9)--x--x-|--9----9------|--9----10-----x-x-|
|-12---12------|-12---12-(12)--x--x-|-12---12------|-12----12-----x-x-|
|-11---11------|-11---11-(11)--x--x-|-11---11------|-11----11-----x-x-|
|--9----9------|--9----9--(9)--x--x-|--9----9------|--9-----9-----x-x-|
|--------------|--------------------|--------------|------------------|
|--------------|--------------------|--------------|------------------|


  D/G                               F#m
   E E  Q   E     E  E   Q   E      E E Q   E     E  E   Q   E
|--------------|------------------|------------|------------------|
|--------------|------------------|------------|------------------|
|-11---11------|-11-(9)-11--------|-9---9------|-11-(9)-11--------|
|--x----x------|--x-(x)--x--------|-x---x------|--x-(x)--x--------|
|--9----9------|--9-(7)--9--------|-7---7------|--9-(7)--9--------|
|----------(0)-|------------(0)---|--------(0)-|------------(0)---|
|
|  E E  Q   E     E  E   Q   S  S   E E Q   E     E  E   Q   S  S
|--5----5------|--5------5---x--x-|-5---5------|--5------5---x--x-|
|--7----7------|--7------7---x--x-|-7---7------|--7------7---x--x-|
|--7----7------|--7------7---x--x-|-6---6------|--6------6---x--x-|
|--5----5------|--5------5---x--x-|-4---4------|--4------4---x--x-|
|--------------|------------------|------------|------------------|
|--------------|------------------|------------|------------------|


  F#sus4/B                                                 Bm
   E E  Q  E    E  E   Q       E       E E  Q   E     E  E  E  Q
|------------|----------------------|--------------|------------------|
|------------|----------------------|--------------|------------------|
|-11---11----|-11-(9)-11------------|-11---11------|-11-14-14-14\-----|
|--x----x----|--x-(x)--x------------|--x----x------|--x--x--x--x------|
|--9----9----|--9-(7)--9------------|--9----9------|--9-12-12-12\-----|
|----------0-|----------------(0)---|----------(0)-|------------------|
|
|  E E  Q  E    E  E   E  +E   S  S    E E  Q   E     E  E  Q     S S
|--9----9----|--9------9--(9)--x--x-|--9----9------|--9----10-----x-x-|
|-12---12----|-12-----12-(12)--x--x-|-12---12------|-12----12-----x-x-|
|-11---11----|-11-----11-(11)--x--x-|-11---11------|-11----11-----x-x-|
|--9----9----|--9------9--(9)--x--x-|--9----9------|--9-----9-----x-x-|
|------------|----------------------|--------------|------------------|
|------------|----------------------|--------------|------------------|


  F#sus4/B                                                Bm
   E E  Q   E     E E  Q       E       E E  Q   E     E E  Q   +E
|--------------|--------------------|--------------|------------------|
|--------------|--------------------|--------------|------------------|
|-16---16------|-16---16------------|-19---19------|-19---19--(19)\---|
|--x----x------|--x----x------------|--x----x------|--x----x---(x)----|
|-14---14------|-14---14------------|-17---17------|-17---17--(17)\---|
|----------(0)-|--------------(0)---|----------(0)-|------------------|
|
|  E E  Q   E     E E  E  +E   S  S    E E  Q   E     E E  Q    S   S
|--9----9------|--9----9--(9)--x--x-|--9----9------|--9---10----x---x-|
|-12---12------|-12---12-(12)--x--x-|-12---12------|-12---12----x---x-|
|-11---11------|-11---11-(11)--x--x-|-11---11------|-11---11----x---x-|
|--9----9------|--9----9--(9)--x--x-|--9----9------|--9----9----x---x-|
|--------------|--------------------|--------------|------------------|
|--------------|--------------------|--------------|------------------|


 Verse
  E5/F#           N.C.
 9/4
  >
  H.       +H     Q.   H       +E
|----------------------------------|
|----------------------------------|
|-9--------(9)---------9-------(9)-|
|-9--------(9)---------------------|
|-9--------(9)---------------------|
|-----------------0----------------|
|
| >
| W..                    +Q.    E
|-9----------------------(9)----9--|
|----------------------------------|
|----------------------------------|
|----------------------------------|
|----------------------------------|
|----------------------------------|


  >
  E.      E.      E.      E.      Q       Q     Q    +H.
|---------------------------------------------------------------|
|-8------(8)-----(8)-----(8)-----<7>-----<5>--------------------|
|-9------(9)-----(9)-----(9)------------------------------------|
|----------------------------------------------<5>--(<5>)-------|
|---------------------------------------------------------------|
|---------------------------------------------------------------|
|
|     >
| E   E       E   E   E       E   E   E   E  W                E
|----(9)---------(9)---------(9)-----(9)------------------------|
|---------------------------------------------------------------|
|-7----------(7)-----(7)---------(7)-----(7)--------------------|
|---------------------------------------------------------------|
|---------------------------------------------------------------|
|---------------------------------------------------------------|


                               Gtr III
                               TP TP TP TP TP TP TP TP
   Q       +Q     +H.          E  E  E  E  E  E  E  E
|-----------------------------------------------------|
|-----------------------------------------------------|
|-11b14===(11)---(11)r--------------------------------|
|------------------------------x\-xS=x\-xS=x\-xS=x\-xS|
|------------------------------x\-x\-x\-x\-x\-x\-x\-xS|
|-----------------------------------------------------|
|
|  Q        E  Q       E W.
|-----------------------------------------------------|
|------------------------7----------------------------|
|--------------7-------7------------------------------|
|--9--------9-----------------------------------------|
|-----------------------------------------------------|
|-----------------------------------------------------|


  F#5/D
 11/4
                                                     Gtr I
   TP  TP TP TP TP TP TP TP TP TP TP TP TP TP  TP TP
   E   E  E  E  E  E  E  E  E  E  E  E  E  E   E  E    H               +Q
|-----------------------------------------------------------------------------|
|----------------------------------------------------(16)b17.5========(16)r---|
|-----------------------------------------------------------------------------|
|--x\--x\-x\-x\-x\-x\-x\-x\-x\-x\-x\-x\-x\-x\--x\-x\--------------------------|
|--x\--x\-x\-x\-x\-x\-x\-x\-x\-x\-x\-x\-x\-x\--x\-x\--------------------------|
|-----------------------------------------------------------------------------|
|
|  >
|  W..                                        +H                 +H
|-!9------------------------------------------(9)----------------(9)----------|
|-!7------------------------------------------(7)----------------(7)----------|
|-!7------------------------------------------(7)----------------(7)----------|
|-----------------------------------------------------------------------------|
|-----------------------------------------------------------------------------|
|-----------------------------------------------------------------------------|


 Chorus
  F#sus4/B                                            Bm
 5/8
   E E  Q   E    E E  Q   E       E E  Q   E     E  E  E  Q
|-------------|----------------|--------------|------------------|
|-------------|----------------|--------------|------------------|
|-11---11--11-|-11---11--------|-11---11------|-11-14-14-14\-----|
|--x----x---x-|--x----x--------|--x----x------|--x--x--x--x------|
|--9----9---9-|--9----9--------|--9----9------|--9-12-12-12\-----|
|-------------|----------(0)---|----------(0)-|------------------|
|
|  E E  Q   E    E E  Q   S  S    E E  Q   E     E  E  Q     S S
|--9----9-----|--9----9---x--x-|--9----9------|--9----10-----x-x-|
|-12---12-----|-12---12---x--x-|-12---12------|-12----12-----x-x-|
|-11---11-----|-11---11---x--x-|-11---11------|-11----11-----x-x-|
|--9----9-----|--9----9---x--x-|--9----9------|--9-----9-----x-x-|
|-------------|----------------|--------------|------------------|
|-------------|----------------|--------------|------------------|


  D/G                        F#m
   E E  Q   E   E E Q  S S    E  E    Q   E     E E  E  +E   E
|-------------|------------|-----------------|--------------------|
|-------------|------------|-----------------|--------------------|
|-11---11--11-|-9---9--9-9S|=11-(9)-/11------|-11---11-(11)-------|
|--x----x---x-|-x---x--x-x-|--x-(x)---x------|--x----x--(x)-------|
|--9----9---9-|-7---7--7-7S|==9-(7)--/9------|--9----9--(9)-------|
|-------------|------------|-------------(0)-|--------------(0)---|
|
|  E E  Q   E   E E Q  S S    E  E    Q   E     E E  Q       S  S
|--5----5-----|-5---5--x-x-|--5-------5------|--5----5-------x--x-|
|--7----7-----|-7---7--x-x-|--7-------7------|--7----7-------x--x-|
|--7----7-----|-7---7--x-x-|--6-------6------|--6----6-------x--x-|
|--5----5-----|-5---5--x-x-|--4-------4------|--4----4-------x--x-|
|-------------|------------|-----------------|--------------------|
|-------------|------------|-----------------|--------------------|


  F#sus4/B                                                 Bm
   E E  Q  E    E  E   Q       E       E E  Q   E     E  E  E  Q
|------------|----------------------|--------------|------------------|
|------------|----------------------|--------------|------------------|
|-11---11----|-11-(9)-11------------|-11---11------|-11-14-14-14\-----|
|--x----x----|--x-(x)--x------------|--x----x------|--x--x--x--x------|
|--9----9----|--9-(7)--9------------|--9----9------|--9-12-12-12\-----|
|----------0-|----------------(0)---|----------(0)-|------------------|
|
|  E E  Q  E    E  E   E  +E   S  S    E E  Q   E     E  E  Q     S S
|--9----9----|--9------9--(9)--x--x-|--9----9------|--9----10-----x-x-|
|-12---12----|-12-----12-(12)--x--x-|-12---12------|-12----12-----x-x-|
|-11---11----|-11-----11-(11)--x--x-|-11---11------|-11----11-----x-x-|
|--9----9----|--9------9--(9)--x--x-|--9----9------|--9-----9-----x-x-|
|------------|----------------------|--------------|------------------|
|------------|----------------------|--------------|------------------|


  F#sus4/B                                               Bm
   E E  Q   E     E E  Q      S S    E S S  Q   E    E E  Q   +E
|--------------|------------------|---------------|------------------|
|--------------|------------------|---------------|------------------|
|-16---16------|-16---16------x-x-|-19-x-x-19--19-|-19---19--(19)\---|
|--x----x------|--x----x------x-x-|--x-x-x--x---x-|--x----x---(x)----|
|-14---14------|-14---14------x-x-|-17-x-x-17--17-|-17---17--(17)\---|
|----------(0)-|------------------|---------------|------------------|
|
|  E E  Q   E     E E  E  +E  S S    E E    Q   E    E E  Q    S   S
|--9----9------|--9----9--(9)-x-x-|--9------9-----|--9---10----x---x-|
|-12---12------|-12---12-(12)-x-x-|-12-----12-----|-12---12----x---x-|
|-11---11------|-11---11-(11)-x-x-|-11-----11-----|-11---11----x---x-|
|--9----9------|--9----9--(9)-x-x-|--9------9-----|--9----9----x---x-|
|--------------|------------------|---------------|------------------|
|--------------|------------------|---------------|------------------|


 Bridge
  F#sus4/B                  N.C.
 9/4
  Gtr IV
   E   E E   E Q  Q  Q  E E E  E E E E +E
|------------------------------------------|
|------------------------------------------|
|------------------------------------------|
|----------/12-9--7--9----2--------4-------|
|--------9--------------0---0--2S5---5-(5)-|
|--7--10-----------------------------------|
|
| Gtr II
|  >
|  W.                       H.
|--9---------------------------------------|
|-12---------------------------------------|
|-11---------------------------------------|
|--9---------------------------------------|
|------------------------------------------|
|------------------------------------------|


 10/4
  E  E E   E Q  Q  Q  E E E E E E Q    Q
|---------------------------------------------|
|---------------------------------------------|
|------------------------------------(<4>)----|
|--------/12-9--7--9----2-------4-0---<4>-----|
|------9--------------0---0-2S5-------<4>-----|
|-7-10----------------------------------------|
|
| W
|---------------------------------------------|
|---------------------------------------------|
|---------------------------------------------|
|---------------------------------------------|
|---------------------------------------------|
|---------------------------------------------|


 Verse
  N.C.
 9/4
  Gtr IV
  E  E E   E Q   Q   Q  E E  E  E E E E +E
|-------------------------------------------|
|-------------------------------------------|
|-------------------------------------------|
|--------/12-9---7---9----2---------4-------|
|------9----------------0----0--2S5---5-(5)-|
|-7-10--------------------------------------|
|
| Gtr V
| E  E E   E E E H.         +H.
|-------------------------------------------|
|-------------------------------------------|
|-------------------------------------------|
|----0-----7---7----------------------------|
|------------9---9----------(9)-------------|
|-7----7------------------------------------|


  E  E E   E Q   Q   Q  E E  E  E E E E +E
|-------------------------------------------|
|-------------------------------------------|
|-------------------------------------------|
|--------/12-9---7---9----2---------4-------|
|------9----------------0----0--2S5---5-(5)-|
|-7-10--------------------------------------|
|
| E  E E   E E E H.         +H.
|-------------------------------------------|
|-------------------------------------------|
|-------------------------------------------|
|----0-----7---7----------------------------|
|------------9---9----------(9)-------------|
|-7----7------------------------------------|


  E  E E   E Q  Q  Q  E  E  E E E E E +E
|-----------------------------------------|
|-----------------------------------------|
|-----------------------------------------|
|--------/12-9--7--9-----2--------4-------|
|------9--------------0-----0-2S5---5-(5)-|
|-7-10------------------------------------|
|
| E  E Q     Q  Q  Q  E +E  Q   Q   Q
|-----------------------------------------|
|-----------------------------------------|
|-----------------------------------------|
|-7s=9-9-----9--9--9--9-(9)S7---7---7-----|
|-----------------------------------------|
|-----------------------------------------|


 10/4
  E  E E   E Q  Q  Q  E  E  E E E E E +E   Q
|----------------------------------------------|
|----------------------------------------------|
|----------------------------------------------|
|--------/12-9--7--9-----2--------4-------<5>--|
|------9--------------0-----0-2S5---5-(5)-<5>--|
|-7-10-----------------------------------------|
|
| E  E Q     Q  Q  Q  E +E  Q   Q   Q      Q
|----------------------------------------------|
|----------------------------------------------|
|----------------------------------------------|
|-7s=9-9-----9--9--9--9-(9)S7---7---7------7---|
|----------------------------------------------|
|----------------------------------------------|


  N.C.
 3/4                                      2/4
  Gtr IV
  Q.    E  E E    Q  H        E E E Q  E   H
|--------------|------------|------------|--------|
|--------------|------------|------------|--------|
|-------9s11s9s|=11---------|-7s9s7-7--4S|=7------|
|--------------|------------|-------x--x-|-x------|
|-------7s=9s7s|==9---------|-5s7s5-5--2S|=5------|
|--------------|------------|------------|--------|
|
| Gtr II
| E E E Q    E    Q  E Q  E   Q   E Q  E   Q  E E
|--------------|------------|------------|--------|
|--------------|------------|------------|--------|
|--------------|------------|------------|--------|
|-----7------7-|-----7----7-|-----7----7-|----7---|
|-7h9---9------|--9----9----|-9-----9----|-9----9-|
|--------------|------------|------------|--------|


 3/4                                       2/4
  Q.    E  E E    Q  H        Q.    Q.      H
|--------------|------------|-------------|--------|
|--------------|------------|-------------|--------|
|-------9s11s9s|=11---------|-7-----9-----|-4------|
|--------------|------------|-x-----x-----|-x------|
|-------7s=9s7s|==9---------|-5-----7-----|-2------|
|--------------|------------|-------------|--------|
|
| E E E Q    E    Q  E Q  E   Q   E Q   E   Q  E E
|--------------|------------|-------------|--------|
|--------------|------------|-------------|--------|
|--------------|------------|-------------|--------|
|-----7------7-|-----7----7-|-----7-----7-|----7---|
|-7h9---9------|--9----9----|-9-----9-----|-9----9-|
|--------------|------------|-------------|--------|


 3/4                                                     2/4
   Q.       E  E E    H.               E  Q     Q     E    H
|------------------|----------------|-------------------|-----------|
|------------------|----------------|-------------------|-----------|
|-----------9s11s9s|=11-------------|-14s16----16S===14-|-11--------|
|------------------|----------------|-------------------|--x--------|
|-----------7s=9s7s|==9-------------|-12s14----14S===12-|--9--------|
|------------------|----------------|-------------------|-----------|
|
|  E   E  Q    Q      E   E  Q   Q     E  E  Q     Q       E  E  Q
|------------------|----------------|-------------------|-----------|
|------------------|----------------|-------------------|-----------|
|------------------|----------------|-------------------|-----------|
|-----12------12---|-----12-----12--|----12-------12----|----12-----|
|-14-----14--------|-14-----14------|-14----14----------|-14----14--|
|------------------|----------------|-------------------|-----------|


 3/4                                       2/4
  Q.    E  E E    Q  H        Q.    Q.       H
|--------------|------------|-------------|-------|
|--------------|------------|-------------|-------|
|-------9s11s9s|=11---------|-7-----9-----|--4----|
|--------------|------------|-x-----x-----|--x----|
|-------7s=9s7s|==9---------|-5-----7-----|--2----|
|--------------|------------|-------------|-------|
|
| Q   E Q    E    Q  E Q  E   Q   E Q   E    H
|-9---9-9----9-|--9--9-9--9-|-9---9-9---9-|-10----|
|--------------|------------|-------------|-------|
|--------------|------------|-------------|-------|
|--------------|------------|-------------|-------|
|--------------|------------|-------------|-------|
|--------------|------------|-------------|-------|


 Verse
  N.C.
 3/4
  E  H    +E    +H.        +H.            +H.
|-------------|----------|--------------|--------|
|-------------|----------|--------------|--------|
|-------------|----------|--------------|--------|
|-------------|----------|--------------|--------|
|-0--2----(2)-|-(2)------|-(2)----------|-(2)----|
|-------------|----------|--------------|--------|
|
|                          Gtr V
| >
| H.            +H.         E  E E Q.     +H.
|-9-----------|-(9)------|--------------|--------|
|-------------|----------|---------7----|-(7)----|
|-------------|----------|-----7--------|--------|
|-------------|----------|--9----9------|--------|
|-------------|----------|--------------|--------|
|-------------|----------|--------------|--------|


  F#m
  H.            +H.        +H.            +H.
|-------------|----------|--------------|--------|
|-------------|----------|--------------|--------|
|-------------|----------|--------------|--------|
|-7-----------|-(7)------|-(7)----------|-(7)----|
|-9-----------|-(9)------|-(9)----------|-(9)----|
|-------------|----------|--------------|--------|
|
| E  E E Q.     +H.         E  E E Q.     +H.
|-------------|----------|--------------|--------|
|--------7----|-(7)------|---------7----|-(7)----|
|----6--------|----------|-----6--------|--------|
|-7----7------|----------|--7----7------|--------|
|-------------|----------|--------------|--------|
|-------------|----------|--------------|--------|


  Bm
   H.            +H.        +H.            +H.
|--------------|----------|--------------|--------|
|--------------|----------|--------------|--------|
|-^4-----------|-(4)------|-(4)----------|-(4)----|
|-^0-----------|-(0)------|-(0)----------|-(0)----|
|-^2-----------|-(2)------|-(2)----------|-(2)----|
|--------------|----------|--------------|--------|
|
|  E  E E Q.     +H.         E  E E Q.     +H.
|--------------|----------|--------------|--------|
|---------7----|-(7)------|---------7----|-(7)----|
|-----7--------|----------|-----7--------|--------|
|--9----9------|----------|--9----9------|--------|
|--------------|----------|--------------|--------|
|--------------|----------|--------------|--------|


  A
   H.            +H.        +H.            +H.
|--------------|----------|--------------|--------|
|-^5-----------|-(5)------|-(5)----------|-(5)----|
|-^6-----------|-(6)------|-(6)----------|-(6)----|
|-^7-----------|-(7)------|-(7)----------|-(7)----|
|--------------|----------|--------------|--------|
|--------------|----------|--------------|--------|
|
|  E  E E Q.     +H.         E  E E Q.     +H.
|--------------|----------|--------------|--------|
|---------7----|-(7)------|---------7----|-(7)----|
|-----6--------|----------|-----6--------|--------|
|--7----7------|----------|--7----7------|--------|
|--------------|----------|--------------|--------|
|--------------|----------|--------------|--------|


  B5
  H.            +H.        +H.            +H.
|-------------|----------|--------------|--------|
|-------------|----------|--------------|--------|
|-4-----------|-(4)------|-(4)----------|-(4)----|
|-4-----------|-(4)------|-(4)----------|-(4)----|
|-2-----------|-(2)------|-(2)----------|-(2)----|
|-------------|----------|--------------|--------|
|
| E  E E Q.     +H.         E  E E Q.     +H.
|-------------|----------|--------------|--------|
|-------------|----------|--------------|--------|
|----7--------|----------|-----7--------|--------|
|-9----9------|----------|--9----9------|--------|
|--------9----|-(9)------|---------9----|-(9)----|
|-------------|----------|--------------|--------|


  A
   H.            +H.        +H.            +H.
|--------------|----------|--------------|--------|
|-^5-----------|-(5)------|-(5)----------|-(5)----|
|-^6-----------|-(6)------|-(6)----------|-(6)----|
|-^7-----------|-(7)------|-(7)----------|-(7)----|
|--------------|----------|--------------|--------|
|--------------|----------|--------------|--------|
|
|  E  E E Q.     +H.         E  E E Q.     +H.
|--------------|----------|--------------|--------|
|--------------|----------|--------------|--------|
|-----6--------|----------|-----6--------|--------|
|--7----7------|----------|--7----7------|--------|
|---------9----|-(9)------|---------9----|-(9)----|
|--------------|----------|--------------|--------|


    N.C.(Bm/F#)
    Q.     E  E E    E  E E E Q    Q.     E  E E    E  E E E Q
||----------------|-----7---7----|---------------|-----7---7----|
||o---------------|-------7---7--|---------------|-------7---7--|
||--------------2s|==4-----------|-------------2s|==4-----------|
||---------4--2---|--------------|--------4--2---|--------------|
||o-2-------------|--------------|-2-------------|--------------|
||----------------|--------------|---------------|--------------|
|
|   E  E E Q.       +H.            E  E E Q.       +H.
||----------------|--------------|---------------|--------------|
||o---------------|--------------|---------------|--------------|
||-----7----------|--------------|----7----------|--------------|
||--9----9--------|--------------|-9----9--------|--------------|
||o--------9------|-(9)----------|--------9------|-(9)----------|
||----------------|--------------|---------------|--------------|


  1.
  N.C.(A/F#)
  Q.     E  E E    E  E E E Q    Q.     E  E E    E  E E E Q
|---------------|-----7---7----|---------------|-----7---7------||
|---------------|-------7---7--|---------------|-------7-------o||
|-------------2s|==4-----------|-------------2s|==4--------7\---||
|-0------4--2---|--------------|-0------4--2---|----------------||
|---------------|--------------|---------------|---------------o||
|---------------|--------------|---------------|----------------||
|
| E  E E Q.       +H.            E  E E Q.       +H.
|---------------|--------------|---------------|----------------||
|---------------|--------------|---------------|---------------o||
|----6----------|--------------|----6----------|----------------||
|-7----7--------|--------------|-7----7--------|----------------||
|--------9------|-(9)----------|--------9------|-(9)-----------o||
|---------------|--------------|---------------|----------------||


  2.
  Q.     E  E E    E  E E E Q     Q.     E  E E    E  E E E Q
|---------------|-----7---7-----|---------------|-----7---7-----|
|---------------|-------7-------|---------------|-------7-------|
|-------------2s|==4--------7\--|-------------2s|==4--------7\--|
|-0------4--2---|---------------|-0------4--2---|---------------|
|---------------|---------------|---------------|---------------|
|---------------|---------------|---------------|---------------|
|
| E  E E Q.       +H.             E  E E Q.       +H.
|---------------|---------------|---------------|---------------|
|---------------|---------------|---------------|---------------|
|----6----------|---------------|----6----------|---------------|
|-7----7--------|---------------|-7----7--------|---------------|
|--------9------|-(9)-----------|--------9------|-(9)-----------|
|---------------|---------------|---------------|---------------|


 Chorus
  F#sus4/B                                         Bm
 5/8
  Gtr I
   W            W              E E  Q   E     E  E  E  Q
|------------|--------------|--------------|------------------|
|------------|--------------|--------------|------------------|
|------------|--------------|-11---11------|-11-14-14-14\-----|
|------------|--------------|--x----x------|--x--x--x--x------|
|------------|--------------|--9----9------|--9-12-12-12\-----|
|------------|--------------|----------(0)-|------------------|
|
| Gtr II
|  E E  Q  E    E E  Q  S S    E E  Q   E     E  E  Q     S S
|--9----9----|--9----9--x-x-|--9----9------|--9----10-----x-x-|
|-12---12----|-12---12--x-x-|-12---12------|-12----12-----x-x-|
|-11---11----|-11---11--x-x-|-11---11------|-11----11-----x-x-|
|--9----9----|--9----9--x-x-|--9----9------|--9-----9-----x-x-|
|------------|--------------|--------------|------------------|
|------------|--------------|--------------|------------------|


  D/G                               F#m
   E E  Q   E     E  E   Q   E      E E Q   E     E  E   Q   E
|--------------|------------------|------------|------------------|
|--------------|------------------|------------|------------------|
|-11---11------|-11-(9)-11--------|-9---9------|-11-(9)-11--------|
|--x----x------|--x-(x)--x--------|-x---x------|--x-(x)--x--------|
|--9----9------|--9-(7)--9--------|-7---7------|--9-(7)--9--------|
|----------(0)-|------------(0)---|--------(0)-|------------(0)---|
|
|  E E  Q   E     E  E   Q   S  S   E E Q   E     E  E   Q   S  S
|--5----5------|--5------5---x--x-|-5---5------|--5------5---x--x-|
|--7----7------|--7------7---x--x-|-7---7------|--7------7---x--x-|
|--7----7------|--7------7---x--x-|-6---6------|--6------6---x--x-|
|--5----5------|--5------5---x--x-|-4---4------|--4------4---x--x-|
|--------------|------------------|------------|------------------|
|--------------|------------------|------------|------------------|


  F#sus4/B                                                  Bm
   E   E   Q   E     E  E   Q  S S    E S S  Q   E     E  E  E  Q
|-----------------|----------------|----------------|------------------|
|-----------------|----------------|----------------|------------------|
|-11-(11)-11------|-11-(9)-11--x-x-|-11-x-x-11------|-11-14-14-14\-----|
|--x--(x)--x------|--x-(x)--x--x-x-|--x-x-x--x------|--x--x--x--x------|
|--9--(9)--9------|--9-(7)--9--x-x-|--9-x-x--9------|--9-12-12-12\-----|
|-------------(0)-|----------------|------------(0)-|------------------|
|
|  E   E   Q   E     E  E   Q  S S    E E    Q   E     E  E  Q     S S
|--9-------9------|--9------9--x-x-|--9------9------|--9----10-----x-x-|
|-12------12------|-12-----12--x-x-|-12-----12------|-12----12-----x-x-|
|-11------11------|-11-----11--x-x-|-11-----11------|-11----11-----x-x-|
|--9-------9------|--9------9--x-x-|--9------9------|--9-----9-----x-x-|
|-----------------|----------------|----------------|------------------|
|-----------------|----------------|----------------|------------------|


  F#sus4/B                                           Bm
   E E  Q   E     E E  Q  S S    E S S  Q   E    E E  Q     E
|--------------|--------------|---------------|-------------------|
|--------------|--------------|---------------|-------------------|
|-16---16------|-16---16--x-x-|-19-x-x-19--19-|-19---19\--(19)\---|
|--x----x------|--x----x--x-x-|--x-x-x--x---x-|--x----x----(x)----|
|-14---14------|-14---14--x-x-|-17-x-x-17--17-|-17---17\--(17)\---|
|----------(0)-|--------------|---------------|-------------------|
|
|  E E  Q   E     E E  Q  S S    E E    Q   E    E E  Q     S   S
|--9----9------|--9----9--x-x-|--9------9-----|--9---10-----x---x-|
|-12---12------|-12---12--x-x-|-12-----12-----|-12---12-----x---x-|
|-11---11------|-11---11--x-x-|-11-----11-----|-11---11-----x---x-|
|--9----9------|--9----9--x-x-|--9------9-----|--9----9-----x---x-|
|--------------|--------------|---------------|-------------------|
|--------------|--------------|---------------|-------------------|


 Outro
  N.C.
 3/4                                      2/4
  Gtr IV
  Q.    E  E E    Q  H        E E E Q  E   H
|--------------|------------|------------|--------|
|--------------|------------|------------|--------|
|-------9s11s9s|=11---------|-7s9s7-7--4S|=7------|
|--------------|------------|-------x--x-|-x------|
|-------7s=9s7s|==9---------|-5s7s5-5--2S|=5------|
|--------------|------------|------------|--------|
|
| Gtr II
| E E E Q    E    Q  E Q  E   Q   E Q  E   Q  E E
|--------------|------------|------------|--------|
|--------------|------------|------------|--------|
|--------------|------------|------------|--------|
|-----7------7-|-----7----7-|-----7----7-|----7---|
|-7h9---9------|--9----9----|-9-----9----|-9----9-|
|--------------|------------|------------|--------|


 3/4                                       2/4
  Q.    E  E E    Q  H        Q.    Q.      H
|--------------|------------|-------------|--------|
|--------------|------------|-------------|--------|
|-------9s11s9s|=11---------|-7-----9-----|-4------|
|--------------|------------|-x-----x-----|-x------|
|-------7s=9s7s|==9---------|-5-----7-----|-2------|
|--------------|------------|-------------|--------|
|
| E E E Q    E    Q  E Q  E   Q   E Q   E   Q  E E
|--------------|------------|-------------|--------|
|--------------|------------|-------------|--------|
|--------------|------------|-------------|--------|
|-----7------7-|-----7----7-|-----7-----7-|----7---|
|-7h9---9------|--9----9----|-9-----9-----|-9----9-|
|--------------|------------|-------------|--------|


 3/4                                                     2/4
   Q.       E  E E    H.               E  Q     Q     E    H
|------------------|----------------|-------------------|-----------|
|------------------|----------------|-------------------|-----------|
|-----------9s11s9s|=11-------------|-14s16----16S===14-|-11--------|
|------------------|----------------|-------------------|--x--------|
|-----------7s=9s7s|==9-------------|-12s14----14S===12-|--9--------|
|------------------|----------------|-------------------|-----------|
|
|  E   E  Q    Q      E   E  Q   Q     E  E  Q     Q       E  E  Q
|------------------|----------------|-------------------|-----------|
|------------------|----------------|-------------------|-----------|
|------------------|----------------|-------------------|-----------|
|-----12------12---|-----12-----12--|----12-------12----|----12-----|
|-14-----14--------|-14-----14------|-14----14----------|-14----14--|
|------------------|----------------|-------------------|-----------|


 3/4                                       2/4
  Q.    E  E E    Q  H        Q.    Q.       H
|--------------|------------|-------------|-------|
|--------------|------------|-------------|-------|
|-------9s11s9s|=11---------|-7-----9-----|--4----|
|--------------|------------|-x-----x-----|--x----|
|-------7s=9s7s|==9---------|-5-----7-----|--2----|
|--------------|------------|-------------|-------|
|
| Q   E Q    E    Q  E Q  E   Q   E Q   E    H
|-9---9-9----9-|--9--9-9--9-|-9---9-9---9-|-10----|
|--------------|------------|-------------|-------|
|--------------|------------|-------------|-------|
|--------------|------------|-------------|-------|
|--------------|------------|-------------|-------|
|--------------|------------|-------------|-------|


 3/4
  Gtr I
    >
    H.          +H.          +H.          +H.
|------------|------------|------------|----------*|
|------------|------------|------------|----------*|
|---7--------|--(7)-------|--(7)-------|--(7)-----*|
|-(<5>)------|-(<5>)------|-(<5>)------|-(<5>)----*|
|---5--------|--(5)-------|--(5)-------|--(5)-----*|
|------------|------------|------------|----------*|
|
|   >
|   H.          +H.          +H.          +H.
|---9--------|--(9)-------|--(9)-------|--(9)-----*|
|------------|------------|------------|----------*|
|------------|------------|------------|----------*|
|------------|------------|------------|----------*|
|------------|------------|------------|----------*|
|------------|------------|------------|----------*|



Duration Legend
---------------
W - whole; H - half; Q - quarter; E - 8th; S - 16th; T - 32nd; X - 64th; a - acciaccatura
+ - note tied to previous; . - note dotted; .. - note double dotted
Uncapitalized letters represent notes that are staccato (1/2 duration)
Irregular groupings are notated above the duration line
Duration letters will always appear directly above the note/fret number it represents the
duration for.  Duration letters with no fret number below them represent rests.  Multi-
bar rests are notated in the form Wxn, where n is the number of bars to rest for.  Low
melody durations appear below the staff

Tablature Legend
----------------
 h   - hammer-on
 p   - pull-off
 b   - bend
 pb  - pre-bend
 r   - bend release (if no number after the r, then release immediately)
 /\  - slide into or out of (from/to "nowhere")
 s   - legato slide
 S   - shift slide
 - natural harmonic
[n]  - artificial harmonic
n(n) - tapped harmonic
 ~   - vibrato
 tr  - trill
 T   - tap
 TP  - trem. picking
 PM  - palm muting
\n/  - tremolo bar dip; n = amount to dip
 \n  - tremolo bar down
 n/  - tremolo bar up
/n\  - tremolo bar inverted dip
 =   - hold bend; also acts as connecting device for hammers/pulls
 <> - volume swell (louder/softer)
 x   - on rhythm slash represents muted slash
 o   - on rhythm slash represents single note slash

Misc Legend
-----------
 |  - bar
||  - double bar
||o - repeat start
o|| - repeat end
*|  - double bar (ending)
 :  - bar (freetime)
 $  - Segno
 &  - Coda
Tempo markers -  = BPM(8/16=s8/s16), where s8 = swing 8ths, s16 = swing 16ths

Tap to rate this tab
 
# A B C D E F G H I J K L M N O P Q R S T U V W X Y Z