Song name
# A B C D E F G H I J K L M N O P Q R S T U V W X Y Z

Circa Survive - Wish Resign tab

WISH RESIGN
As recorded by Circa Survive
(From the 2005 Album JUTURNA)

Transcribed by Cordarro Collins
	

Words and Music by Circa Survive
Arranged by Circa Survive

Gtr I (Eb Ab Db Gb Bb Eb) - 'Untitled'
Gtr II (Eb Ab Db Gb Bb Eb) - 'Untitled'

 Intro
  Q=141
  N.C.
 4/4
  Gtr II
  Q.   +E   H       +H      Q   +Q     H..       +E    W
|----------------|-------------------|---------------|------|
|----------------|-------------------|---------------|------|
|----------------|-------------------|---------------|------|
|-6----(6)s11----|-(11)----13--(13)S=|=4---------(4)s|=7----|
|-x----(x)--x----|--(x)-----x---(x)--|-x---------(x)-|-x----|
|-4----(4)s=9----|--(9)----11--(11)S=|=2---------(2)s|=5----|


  Gtr I
                                       <
   Q       +Q       +E    q     E      Q       +Q    +Q    +Q
|----------------------------------|----------------------------|
|-----------------------(17)--(17)-|--21b22===(21)--(21)r=(21)--|
|-14b15===(14)r====(14)------------|----------------------------|
|----------------------------------|----------------------------|
|----------------------------------|----------------------------|
|----------------------------------|----------------------------|
|
| Gtr II
|  Q.          +E    H                +H              Q    +Q
|----------------------------------|----------------------------|
|----------------------------------|----------------------------|
|----------------------------------|----------------------------|
|--6-----------(6)s=11-------------|-(11)------------13---(13)S=|
|--x-----------(x)---x-------------|--(x)-------------x----(x)--|
|--4-----------(4)s==9-------------|--(9)------------11---(11)S=|


                        >
                        ~~~~~~~~~~~~~~
   Q       +Q    +Q    +Q         +Q   H    Q
|------------------------------|----------------|
|-17b18===(17)--(17)r=(17)-----|-(17)-----------|
|------------------------------|------------6---|
|------------------------------|----------------|
|------------------------------|----------------|
|------------------------------|----------------|
|
|  H..                     +E      W
|------------------------------|----------------|
|------------------------------|----------------|
|------------------------------|----------------|
|--4-----------------------(4)s|===7------------|
|--x-----------------------(x)-|---x------------|
|--2-----------------------(2)s|===5------------|


 Verse
  N.C.
     ~~~~~~~~~~~~~~~~~~~~~~~~~~~~~~~
  a  W                 +H      +Q      Q
|-------------------|----------------------|
|-------------------|----------------------|
|-6s13--------------|-(13)----(13)\----6---|
|-------------------|----------------------|
|-------------------|----------------------|
|-------------------|----------------------|
|
|    Q.   +E   H       +H       Q     +Q
|-------------------|----------------------|
|-------------------|----------------------|
|-------------------|----------------------|
|----6----(6)s11----|-(11)-----13----(13)S=|
|----x----(x)--x----|--(x)------x-----(x)--|
|----4----(4)s=9----|--(9)-----11----(11)S=|


     ~~~~~~~~~~~~~~~~~~~~~~~~~~~~~~
  a  W                +H      +Q    Q
|------------------|--------------------|
|------------------|--------------------|
|-6s13-------------|-(13)----(13)\--6---|
|------------------|--------------------|
|------------------|--------------------|
|------------------|--------------------|
|
|    H..       +E      W
|------------------|--------------------|
|------------------|--------------------|
|------------------|--------------------|
|----4---------(4)s|===7----------------|
|----x---------(x)-|---x----------------|
|----2---------(2)s|===5----------------|


     ~~~~~~~~~~~~~~~~~~~~~~
  a  W                 +Q.    Q.       Q      W                W
|-------------------|----------------------|----------------|-------|
|-------------------|--------17-------14---|----------------|-14----|
|-6s13--------------|-(13)-----------------|-14-------------|-------|
|-------------------|----------------------|----------------|-------|
|-------------------|----------------------|----------------|-------|
|-------------------|----------------------|----------------|-------|
|
|    Q.   +E   H       +H         Q   +Q      H..       +E     W
|-------------------|----------------------|----------------|-------|
|-------------------|----------------------|----------------|-------|
|-------------------|----------------------|----------------|-------|
|----6----(6)s11----|-(11)-------13--(13)S=|==4---------(4)s|==7----|
|----x----(x)--x----|--(x)--------x---(x)--|--x---------(x)-|--x----|
|----4----(4)s=9----|--(9)-------11--(11)S=|==2---------(2)s|==5----|


   Bridge
    N.C.
    PM   PM     PM  PM      PM   PM
    E  E E  E   E E E E     E  E E E  E E   E  E
||-----0----4-----7---4-|------0---0-----------0-|
||o---------------------|------------------------|
||--6----6------6---6---|---6----6------4---6----|
||----------------------|-------------6----------|
||o---------------------|------------------------|
||----------------------|------------------------|
|
|   Q.     +E   H          +H         Q    +Q
||----------------------|------------------------|
||o---------------------|------------------------|
||----------------------|------------------------|
||--6------(6)s11-------|-(11)-------13---(13)S==|
||o-x------(x)--x-------|--(x)--------x----(x)---|
||--4------(4)s=9-------|--(9)-------11---(11)S==|


  PM    PM  PM  PM      PM  PM
  E   E E E E E E  E    E E E E E E E E
|-----0---4---7----4--|---0---0-------0--||
|---------------------|-----------------o||
|-6-----6---6---6-----|-6---6-----4-6----||
|---------------------|---------6--------||
|---------------------|-----------------o||
|---------------------|------------------||
|
| H..             +E    W
|---------------------|------------------||
|---------------------|-----------------o||
|---------------------|------------------||
|-4---------------(4)s|=7----------------||
|-x---------------(x)-|-x---------------o||
|-2---------------(2)s|=5----------------||


   Verse
    N.C.
    PM   PM     PM  PM      PM   PM   PM--|
    E  E E  E   E E E E     E  E E E  E E   E  E
||-----0----4-----7---4-|------0---0-----------0-|
||o---------------------|------------------------|
||--6----6------6---6---|---6----6------4---6----|
||----------------------|-------------6----------|
||o---------------------|------------------------|
||----------------------|------------------------|
|
|   Q.     +E   H          +H         Q    +Q
||----------------------|------------------------|
||o---------------------|------------------------|
||----------------------|------------------------|
||--6------(6)s11-------|-(11)-------13---(13)S==|
||o-x------(x)--x-------|--(x)--------x----(x)---|
||--4------(4)s=9-------|--(9)-------11---(11)S==|


 1.
  PM    PM  PM  PM      PM  PM  PM--|
  E   E E E E E E  E    E E E E E E E E
|-----0---4---7----4--|---0---0-------0--||
|---------------------|-----------------o||
|-6-----6---6---6-----|-6---6-----4-6----||
|---------------------|---------6--------||
|---------------------|-----------------o||
|---------------------|------------------||
|
| H..             +E    W
|---------------------|------------------||
|---------------------|-----------------o||
|---------------------|------------------||
|-4---------------(4)s|=7----------------||
|-x---------------(x)-|-x---------------o||
|-2---------------(2)s|=5----------------||


  2.
  PM    PM  PM  PM
  E   E E E E E E  E    E E E E E E E E
|-----0---4---7----4--|---4---4---4---4-|
|---------------------|-----------------|
|-6-----6---6---6-----|-6---6---6---6---|
|---------------------|-----------------|
|---------------------|-----------------|
|---------------------|-----------------|
|
| H..             +E    W
|---------------------|-----------------|
|---------------------|-----------------|
|---------------------|-----------------|
|-4---------------(4)s|=7---------------|
|-x---------------(x)-|-x---------------|
|-2---------------(2)s|=5---------------|


 Chorus
  (E/C#)
   E  E E  E  E  E  E E     E  E E E  E E   E  E
|-----4----4-----4----4-|------4---4----4------4-|
|--5----5-----5-----5---|---5----5----5-----5----|
|--6----6-----6-----6---|---6----6----6-----6----|
|-----------------------|------------------------|
|-----------------------|------------------------|
|-----------------------|------------------------|
|
|  TP            TP         TP
|  Q.      E  E  Q.        +H         Q    +Q
|-----------------------|------------------------|
|-----------------------|------------------------|
|-13------13s16-18------|-(18)-------20---(20)S==|
|--x-------x--x--x------|--(x)--------x----(x)---|
|-11------11s14-16------|-(16)-------18---(18)S==|
|-----------------------|------------------------|


  (G#5/C#)                (E/C#)
   E   E E E E E E   E     E E E E E E E E
|------4---4---4-----4--|----4---4---4---4--|
|--4-----4---4---4------|--5---5---5---5----|
|--6-----6---6---6------|--6---6---6---6----|
|-----------------------|-------------------|
|-----------------------|-------------------|
|-----------------------|-------------------|
|
|  TP                      TP
|  H..              +E     W
|-----------------------|-------------------|
|-----------------------|-------------------|
|-11---------------(11)S|=14----------------|
|--x----------------(x)-|--x----------------|
|--9----------------(9)S|=12----------------|
|-----------------------|-------------------|


  (C#sus4)
   E  E E  E  E  E  E E     E  E E E  E E   E  E
|-----4----4-----4----4-|------4---4----4------4-|
|--7----7-----7-----7---|---7----7----7-----7----|
|--6----6-----6-----6---|---6----6----6-----6----|
|-----------------------|------------------------|
|-----------------------|------------------------|
|-----------------------|------------------------|
|
|  TP            TP         TP
|  Q.      E  E  Q.        +H         Q    +Q
|-----------------------|------------------------|
|-----------------------|------------------------|
|-13------13s16-18------|-(18)-------20---(20)S==|
|--x-------x--x--x------|--(x)--------x----(x)---|
|-11------11s14-16------|-(16)-------18---(18)S==|
|-----------------------|------------------------|


  (G#5/C#)                (E/C#)
   E   E E E E E E   E     E E E E E E E E
|------4---4---4-----4--|----4---4---4---4--|
|--4-----4---4---4------|--5---5---5---5----|
|--6-----6---6---6------|--6---6---6---6----|
|-----------------------|-------------------|
|-----------------------|-------------------|
|-----------------------|-------------------|
|
|  TP                      TP
|  H..              +E     W
|-----------------------|-------------------|
|-----------------------|-------------------|
|-11---------------(11)S|=14----------------|
|--x----------------(x)-|--x----------------|
|--9----------------(9)S|=12----------------|
|-----------------------|-------------------|


  (E/C#)
   E E E E E E E E     E  E E E  E E E E
|----4---4---4---4-|------4---4----4---4-|
|--5---5---5---5---|---5----5----5---5---|
|--6---6---6---6---|---6----6----6---6---|
|------------------|---------------------|
|------------------|---------------------|
|------------------|---------------------|
|
|  TP                  TP        TP
|  W                  +H         H
|------------------|---------------------|
|------------------|---------------------|
|-13---------------|-(13)-------14-------|
|--x---------------|--(x)--------x-------|
|-11---------------|-(11)-------12-------|
|------------------|---------------------|


  (G#5/C#)
   E E E E E E E E     E  E E E  E  E  E  E
|----4---4---4---4-|------4---4-----4-----4--|
|--4---4---4---4---|---5----5----5-----5-----|
|--6---6---6---6---|---6----6----6-----6-----|
|------------------|-------------------------|
|------------------|-------------------------|
|------------------|-------------------------|
|
|  TP                  TP
|  W                  +H         E  E  E  E
|------------------|-------------------------|
|------------------|-------------------------|
|-13---------------|-(13)-------13s11-11-11--|
|--x---------------|--(x)--------x--x--x--x--|
|-11---------------|-(11)-------11s=9--9--9--|
|------------------|-------------------------|


  (C#sus4)
   E E E E E E E E     E  E E E  E E E E
|----4---4---4---4-|------4---4----4---4-|
|--7---7---7---7---|---7----7----7---7---|
|--6---6---6---6---|---6----6----6---6---|
|------------------|---------------------|
|------------------|---------------------|
|------------------|---------------------|
|
|  TP                  TP        TP
|  W                  +H         H
|------------------|---------------------|
|------------------|---------------------|
|-13---------------|-(13)-------14-------|
|--x---------------|--(x)--------x-------|
|-11---------------|-(11)-------12-------|
|------------------|---------------------|


  (G#5/C#)           (E/C#)
   E E E E E E E E     E E E E E E E E
|----4---4---4---4-|-----4---4---4---4--|
|--4---4---4---4---|---5---5---5---5----|
|--6---6---6---6---|---6---6---6---6----|
|------------------|--------------------|
|------------------|--------------------|
|------------------|--------------------|
|
|  TP                  TP
|  W                   W
|------------------|--------------------|
|------------------|--------------------|
|-13---------------|-/16----------------|
|--x---------------|---x----------------|
|-11---------------|-/14----------------|
|------------------|--------------------|


  (C#m)
  E E E E E E E E   E E E E E E E E
|-------0-------0-|-------0-------0-|
|---5-------5-----|---5-------5-----|
|-6---6---6---6---|-6---6---6---6---|
|-----------------|-----------------|
|-----------------|-----------------|
|-----------------|-----------------|
|
| E E E E E E E E   E E E E E E E E
|-------4-------4-|-------5---------|
|---7-------7-----|---7-------7---7-|
|-----6-------6---|-----6-------6---|
|-----------------|-----------------|
|-4-------4-------|-4-------4-------|
|-----------------|-----------------|


  E E E E E E E E   E E E E   E  E        E  E
|-------0-------0-|-------0------------------0--|
|---5-------5-----|---5----------5--------------|
|-6---6---6---6---|-6---6-----6-----------6-----|
|-----------------|-----------------------------|
|-----------------|-----------------------------|
|-----------------|-----------------------------|
|
| E E E E E E E E   E E E S S H
|-------4-------4-|-------4h5p4-----------------|
|---7-------7-----|---7---------(9)h(10)p(9)----|
|-----6-------6---|-----6-----------------------|
|-----------------|-----------------------------|
|-4-------4-------|-4---------------------------|
|-----------------|-----------------------------|
                    H         E  S    S   Q


  (B5/Ab)
   E E  E  E  E E  E  E    E E  E E E  E E  E
|----------0----------0-|---------0---------0-|
|----7----------7-------|----7---------7------|
|--6----6-----6----6----|--6----6---6----6----|
|-----------------------|---------------------|
|-----------------------|---------------------|
|-----------------------|---------------------|
|
|  E E  E  E  E E  E  E    E E  E E E  E E  E
|-----------------------|---------------------|
|-----------------------|---------------------|
|---------11---------11-|---------9-----------|
|----9----------9-------|----9------9----9----|
|-11---11----11---11----|-11---11-----11---11-|
|-----------------------|---------------------|


  (C#m)
  E E E  E   E E  E E    E  E  E E  E  E  E E
|--------0----------0-|----------0----------0--|
|---5----------5------|-----5----------5-------|
|-6---6------6----6---|--6-----6----6-----6----|
|---------------------|------------------------|
|---------------------|------------------------|
|---------------------|------------------------|
|
| E E E +E   E E  E E    E  E  E E  E  E  E E
|---------------------|------------------------|
|---------------------|------------------------|
|-8-----------------8-|-(8)------8-(8)------8--|
|---9----------9------|-----9----------9-------|
|-----9-(9)s11---11---|-------11---------11----|
|---------------------|------------------------|


 Post Chorus
  N.C.
   TP           TP              TP            TP
   W           +W              +W            +W
|-----------|---------------|-------------|---------|
|-----------|---------------|-------------|---------|
|-13--------|-(13)----------|-(13)--------|-(13)----|
|-----------|---------------|-------------|---------|
|-----------|---------------|-------------|---------|
|-----------|---------------|-------------|---------|
|
|  TP           TP     TP       TP            TP
|  W           +H      H        W            +W
|-16--------|-(16)----17----|--16---------|-(16)----|
|-----------|---------------|-------------|---------|
|-13--------|-(13)----14----|--13---------|-(13)----|
|-----------|---------------|-------------|---------|
|-----------|---------------|-------------|---------|
|-----------|---------------|-------------|---------|


   TP           TP           TP          TP
   W           +W            W          +W
|-----------|--------------|----------|--------|
|-----------|--------------|----------|--------|
|--4--------|--(4)---------|-6--------|-(6)----|
|-----------|--------------|----------|--------|
|-----------|--------------|----------|--------|
|-----------|--------------|----------|--------|
|
|  TP           TP    TP     TP          TP
|  W           +H     H      W           W
|-11--------|-(11)----7----|-9--------|--7-----|
|-----------|--------------|----------|--------|
|--8--------|--(8)----4----|-6--------|--4-----|
|-----------|--------------|----------|--------|
|-----------|--------------|----------|--------|
|-----------|--------------|----------|--------|


   TP           TP              TP            TP
   W           +W              +W            +W
|-----------|---------------|-------------|---------|
|-----------|---------------|-------------|---------|
|-13--------|-(13)----------|-(13)--------|-(13)----|
|-----------|---------------|-------------|---------|
|-----------|---------------|-------------|---------|
|-----------|---------------|-------------|---------|
|
|  TP           TP     TP       TP            TP
|  W           +H      H        W            +W
|-16--------|-(16)----17----|--16---------|-(16)----|
|-----------|---------------|-------------|---------|
|-13--------|-(13)----14----|--13---------|-(13)----|
|-----------|---------------|-------------|---------|
|-----------|---------------|-------------|---------|
|-----------|---------------|-------------|---------|


                                                           >
   TP           TP     TP          TP     TP   TP    TP    TP
   W           +H     +H          +H     +Q   +Q     H    +H
|-----------|-------------------|------------------|-------------|
|-----------|-------------------|------------------|-------------|
|--4--------|--(4)----(4)b6=====|=(4)----(4)--(4)r=|=4----(4)----|
|-----------|-------------------|------------------|-------------|
|-----------|-------------------|------------------|-------------|
|-----------|-------------------|------------------|-------------|
|
|  TP           TP     TP          TP                TP
|  W           +H      H           W                 W
|-11--------|-(11)-----7--------|--9---------------|-7-----------|
|-----------|-------------------|------------------|-------------|
|--8--------|--(8)-----4--------|--6---------------|-4-----------|
|-----------|-------------------|------------------|-------------|
|-----------|-------------------|------------------|-------------|
|-----------|-------------------|------------------|-------------|


   Verse
    N.C.
    PM   PM     PM  PM      PM   PM
    E  E E  E   E E E E     E  E E E  E E   E  E
||-----0----4-----7---4-|------0---0-----------0-|
||o---------------------|------------------------|
||--6----6------6---6---|---6----6------4---6----|
||----------------------|-------------6----------|
||o---------------------|------------------------|
||----------------------|------------------------|
|
|   Q.     +E   H          +H         Q    +Q
||----------------------|------------------------|
||o---------------------|------------------------|
||----------------------|------------------------|
||--6------(6)s11-------|-(11)-------13---(13)S==|
||o-x------(x)--x-------|--(x)--------x----(x)---|
||--4------(4)s=9-------|--(9)-------11---(11)S==|


 1.
  PM    PM  PM  PM      PM  PM
  E   E E E E E E  E    E E E E E E E E
|-----0---4---7----4--|---0---0-------0--||
|---------------------|-----------------o||
|-6-----6---6---6-----|-6---6-----4-6----||
|---------------------|---------6--------||
|---------------------|-----------------o||
|---------------------|------------------||
|
| H..             +E    W
|---------------------|------------------||
|---------------------|-----------------o||
|---------------------|------------------||
|-4---------------(4)s|=7----------------||
|-x---------------(x)-|-x---------------o||
|-2---------------(2)s|=5----------------||


  2.
  PM    PM  PM  PM
  E   E E E E E E  E    E E E       E  E  E  E E    E  E E  E  E  E  E E
|-----0---4---7----4--|---4---------4-----4----4-|-----4----4-----4----4-|
|---------------------|--------------------------|-----------------------|
|-6-----6---6---6-----|-6---6b6.5==(6)-6-(6)-6---|--6----6r(6)-6-(6)-6---|
|---------------------|--------------------------|-----------------------|
|---------------------|--------------------------|-----------------------|
|---------------------|--------------------------|-----------------------|
|
| H..             +E    W                          +W
|---------------------|--------------------------|-----------------------|
|---------------------|--------------------------|-----------------------|
|---------------------|--------------------------|-----------------------|
|-4---------------(4)s|=7------------------------|-(7)-------------------|
|-x---------------(x)-|-x------------------------|-(x)-------------------|
|-2---------------(2)s|=5------------------------|-(5)-------------------|


 Chorus
  (E/C#)
   E  E E  E  E  E  E E     E  E E E  E E   E  E
|-----4----4-----4----4-|------4---4----4------4-|
|--5----5-----5-----5---|---5----5----5-----5----|
|--6----6-----6-----6---|---6----6----6-----6----|
|-----------------------|------------------------|
|-----------------------|------------------------|
|-----------------------|------------------------|
|
|  TP            TP         TP
|  Q.      E  E  Q.        +H         Q    +Q
|-----------------------|------------------------|
|-----------------------|------------------------|
|-13------13s16-18------|-(18)-------20---(20)S==|
|--x-------x--x--x------|--(x)--------x----(x)---|
|-11------11s14-16------|-(16)-------18---(18)S==|
|-----------------------|------------------------|


  (G#5/C#)
   E   E E E E E E   E     E E E E E E E E
|------4---4---4-----4--|----4---4---4---4--|
|--4-----4---4---4------|--5---5---5---5----|
|--6-----6---6---6------|--6---6---6---6----|
|-----------------------|-------------------|
|-----------------------|-------------------|
|-----------------------|-------------------|
|
|  TP                      TP
|  H..              +E     W
|-----------------------|-------------------|
|-----------------------|-------------------|
|-11---------------(11)S|=14----------------|
|--x----------------(x)-|--x----------------|
|--9----------------(9)S|=12----------------|
|-----------------------|-------------------|


  (C#sus4)
   E  E E  E  E  E  E E     E  E E E  E E   E  E
|-----4----4-----4----4-|------4---4----4------4-|
|--7----7-----7-----7---|---7----7----7-----7----|
|--6----6-----6-----6---|---6----6----6-----6----|
|-----------------------|------------------------|
|-----------------------|------------------------|
|-----------------------|------------------------|
|
|  TP            TP         TP
|  Q.      E  E  Q.        +H         Q    +Q
|-----------------------|------------------------|
|-----------------------|------------------------|
|-13------13s16-18------|-(18)-------20---(20)S==|
|--x-------x--x--x------|--(x)--------x----(x)---|
|-11------11s14-16------|-(16)-------18---(18)S==|
|-----------------------|------------------------|


  (G#5/C#)                (E/C#)
   E   E E E E E E   E     E E E E E E E E
|------4---4---4-----4--|----4---4---4---4--|
|--4-----4---4---4------|--5---5---5---5----|
|--6-----6---6---6------|--6---6---6---6----|
|-----------------------|-------------------|
|-----------------------|-------------------|
|-----------------------|-------------------|
|
|  TP                      TP
|  H..              +E     W
|-----------------------|-------------------|
|-----------------------|-------------------|
|-11---------------(11)S|=14----------------|
|--x----------------(x)-|--x----------------|
|--9----------------(9)S|=12----------------|
|-----------------------|-------------------|


  N.C.
   E. E. E E.  E.  E       E. E. E  E. E. E
|--9-------9--11--12---|--12-----------9------|
|-----9----------------|------9----12-----9\--|
|--------9-------------|---------9------------|
|----------------------|----------------------|
|----------------------|----------------------|
|----------------------|----------------------|
|
|  TP                      TP       TP
|  W                      +H        H
|----------------------|----------------------|
|----------------------|----------------------|
|-13-------------------|-(13)------14---------|
|--x-------------------|--(x)-------x---------|
|-11-------------------|-(11)------12---------|
|----------------------|----------------------|


   E.  E.  E  E.  E.  E       E. E. E  E.   E.     E
|-------------------------|--------------------------|
|--9---------10-----------|------9----------9--------|
|-----11--11-----11--11---|---9-----9--9-----------9-|
|-------------------------|--------------------------|
|-------------------------|--------------------------|
|-------------------------|--------------------------|
|
|  TP                         TP
|  W                         +H        E  E     E  E
|-------------------------|--------------------------|
|-------------------------|--------------------------|
|-13----------------------|-(13)------13s11----11-11-|
|--x----------------------|--(x)-------x--x-----x--x-|
|-11----------------------|-(11)------11s=9-----9--9-|
|-------------------------|--------------------------|


   E. E. E E. E. E       E. E. E  E. E.  E
|--9-------9---------|--12-----------9-------|
|-----9-------9------|------9----12-----12\--|
|--------9-------9---|---------9-------------|
|--------------------|-----------------------|
|--------------------|-----------------------|
|--------------------|-----------------------|
|
|  TP                    TP       TP
|  W                    +H        H
|--------------------|-----------------------|
|--------------------|-----------------------|
|-13-----------------|-(13)------14----------|
|--x-----------------|--(x)-------x----------|
|-11-----------------|-(11)------12----------|
|--------------------|-----------------------|


   E.  E.  E E.  E.  E       E.  E.  E E.  E.  E
|------------------------|-------------------------|
|--9---------9-----------|---9---------9-----------|
|-----11--11----11--11---|------11--11----11--11---|
|------------------------|-------------------------|
|------------------------|-------------------------|
|------------------------|-------------------------|
|
|  TP                        TP
|  W                         W
|------------------------|-------------------------|
|------------------------|-------------------------|
|-13---------------------|-/16---------------------|
|--x---------------------|---x---------------------|
|-11---------------------|-/14---------------------|
|------------------------|-------------------------|


   TP                  TP
   W                  +W
|------------------|--------------------|
|------------------|--------------------|
|-13---------------|-(13)---------------|
|------------------|--------------------|
|------------------|--------------------|
|------------------|--------------------|
|
|  E E E E E E E E     E  E E E E E E E
|--------4-------4-|----------5---------|
|----7-------7-----|------7-------7---7-|
|------6-------6---|--------6-------6---|
|------------------|--------------------|
|--4-------4-------|---4--------4-------|
|------------------|--------------------|


    TP                   TP
   +W                   +W
|--------------------|-------------------|
|--------------------|-------------------|
|-(13)---------------|-(13)--------------|
|--------------------|-------------------|
|--------------------|-------------------|
|--------------------|-------------------|
|
|   E  E E E E E E E     E  E E S S H
|----------4-------4-|----------4h5p4----|
|------7-------7-----|------7------------|
|--------6-------6---|--------6----------|
|--------------------|-------------------|
|---4--------4-------|---4---------------|
|--------------------|-------------------|


  (B5/Ab)
   TP                      TP
   W                      +W
|-----------------------|----------------------|
|-----------------------|----------------------|
|--4--------------------|-(4)------------------|
|-----------------------|----------------------|
|-----------------------|----------------------|
|-----------------------|----------------------|
|
|  E E  E  E  E E  E  E    E  E  E E E  E E  E
|-----------------------|----------------------|
|-----------------------|----------------------|
|---------11---------11-|----------9-----------|
|----9----------9-------|-----9------9----9----|
|-11---11----11---11----|-11----11-----11---11-|
|-----------------------|----------------------|


  (B/Ab)
  TP                     TP
  W                     +W
|---------------------|------------------------|
|---------------------|------------------------|
|-6-------------------|-(6)--------------------|
|---------------------|------------------------|
|---------------------|------------------------|
|---------------------|------------------------|
|
| E E E +E   E E  E E    E  E  E E  E  E  E E
|---------------------|------------------------|
|---------------------|------------------------|
|-8-----------------8-|-(8)------8-(8)------8--|
|---9----------9------|-----9----------9-------|
|-----9-(9)s11---11---|-------11---------11----|
|---------------------|------------------------|


  N.C.
   TP                  TP        TP
   W                  +H         H
|------------------|---------------------|
|------------------|---------------------|
|-13---------------|-(13)-------14-------|
|------------------|---------------------|
|------------------|---------------------|
|------------------|---------------------|
|
|  E E E E E E E E     E  E E E  E E E E
|--------4-------4-|----------5----------|
|----7-------7-----|------7--------7---7-|
|------6-------6---|--------6--------6---|
|------------------|---------------------|
|--4-------4-------|---4---------4-------|
|------------------|---------------------|


   TP                  TP
   W                  +W
|------------------|-------------------|
|------------------|-------------------|
|-13---------------|-(13)--------------|
|------------------|-------------------|
|------------------|-------------------|
|------------------|-------------------|
|
|  E E E E E E E E     E  E E S S H
|--------4-------4-|----------4h5p4----|
|----7-------7-----|------7------------|
|------6-------6---|--------6----------|
|------------------|-------------------|
|--4-------4-------|---4---------------|
|------------------|-------------------|


  (B5/Ab)
   TP                      TP
   W                      +W
|-----------------------|----------------------|
|-----------------------|----------------------|
|--4--------------------|-(4)------------------|
|-----------------------|----------------------|
|-----------------------|----------------------|
|-----------------------|----------------------|
|
|  E E  E  E  E E  E  E    E  E  E E E  E E  E
|-----------------------|----------------------|
|-----------------------|----------------------|
|---------11---------11-|----------9-----------|
|----9----------9-------|-----9------9----9----|
|-11---11----11---11----|-11----11-----11---11-|
|-----------------------|----------------------|


  (B/Ab)
  TP                     TP
  W                     +W
|---------------------|------------------------|
|---------------------|------------------------|
|-6-------------------|-(6)--------------------|
|---------------------|------------------------|
|---------------------|------------------------|
|---------------------|------------------------|
|
| E E E +E   E E  E E    E  E  E E  E  E  E E
|---------------------|------------------------|
|---------------------|------------------------|
|-8-----------------8-|-(8)------8-(8)------8--|
|---9----------9------|-----9----------9-------|
|-----9-(9)s11---11---|-------11---------11----|
|---------------------|------------------------|


 Outro
  N.C.
   TP           TP              TP            TP
   W           +W              +W            +W
|-----------|---------------|-------------|---------|
|-----------|---------------|-------------|---------|
|-13--------|-(13)----------|-(13)--------|-(13)----|
|-----------|---------------|-------------|---------|
|-----------|---------------|-------------|---------|
|-----------|---------------|-------------|---------|
|
|  TP           TP     TP       TP            TP
|  W           +H      H        W            +W
|-16--------|-(16)----17----|--16---------|-(16)----|
|-----------|---------------|-------------|---------|
|-13--------|-(13)----14----|--13---------|-(13)----|
|-----------|---------------|-------------|---------|
|-----------|---------------|-------------|---------|
|-----------|---------------|-------------|---------|


   TP           TP           TP          TP
   W           +W            W          +W
|-----------|--------------|----------|--------|
|-----------|--------------|----------|--------|
|--4--------|--(4)---------|-6--------|-(6)----|
|-----------|--------------|----------|--------|
|-----------|--------------|----------|--------|
|-----------|--------------|----------|--------|
|
|  TP           TP    TP     TP          TP
|  W           +H     H      W           W
|-11--------|-(11)----7----|-9--------|--7-----|
|-----------|--------------|----------|--------|
|--8--------|--(8)----4----|-6--------|--4-----|
|-----------|--------------|----------|--------|
|-----------|--------------|----------|--------|
|-----------|--------------|----------|--------|


   TP           TP     TP      TP           TP
   W           +H      H       W           +W
|-----------|---------------|-----------|---------|
|-----------|---------------|-----------|---------|
|-13--------|-(13)----14----|-13--------|-(13)----|
|-----------|---------------|-----------|---------|
|-----------|---------------|-----------|---------|
|-----------|---------------|-----------|---------|
|
|  TP           TP     TP      TP           TP
|  W           +H      H       W           +W
|-16--------|-(16)----17----|-16--------|-(16)----|
|-----------|---------------|-----------|---------|
|-13--------|-(13)----14----|-13--------|-(13)----|
|-----------|---------------|-----------|---------|
|-----------|---------------|-----------|---------|
|-----------|---------------|-----------|---------|


                             >
   TP           TP
   W           +W            W          +W
|-----------|--------------|----------|--------|
|-----------|--------------|----------|--------|
|--4--------|--(4)---------|-6--------|-(6)----|
|-----------|--------------|----------|--------|
|-----------|--------------|----------|--------|
|-----------|--------------|----------|--------|
|
|  TP           TP    TP     TP          TP
|  W           +H     H      W          +W
|-11--------|-(11)----7----|-9--------|-(9)----|
|-----------|--------------|----------|--------|
|--8--------|--(8)----4----|-6--------|-(6)----|
|-----------|--------------|----------|--------|
|-----------|--------------|----------|--------|
|-----------|--------------|----------|--------|


   +W            +W              W            W
|-------------|---------------|-----------|---------|
|-------------|---------------|-----------|---------|
|--(6)--------|--(6)----------|-----------|---------|
|-------------|---------------|-----------|---------|
|-------------|---------------|-----------|---------|
|-------------|---------------|-----------|---------|
|
|   TP            TP     TP      TP           TP
|   W            +H      H       W           +W
|-/16---------|-(16)----17----|-16--------|-(16)----|
|-------------|---------------|-----------|---------|
|-/13---------|-(13)----14----|-13--------|-(13)----|
|-------------|---------------|-----------|---------|
|-------------|---------------|-----------|---------|
|-------------|---------------|-----------|---------|


  Gtr II
   TP           TP    TP     TP          TP
   W           +H     H      W          +W
|-11--------|-(11)----7----|-9--------|-(9)----|
|-----------|--------------|----------|--------|
|--8--------|--(8)----4----|-6--------|-(6)----|
|-----------|--------------|----------|--------|
|-----------|--------------|----------|--------|
|-----------|--------------|----------|--------|


   TP           TP           TP           TP
  +W           +W           +W           +W
|-(9)--------|-(9)--------|-(9)--------|-(9)----*|
|------------|------------|------------|--------*|
|-(6)--------|-(6)--------|-(6)--------|-(6)----*|
|------------|------------|------------|--------*|
|------------|------------|------------|--------*|
|------------|------------|------------|--------*|



Duration Legend
---------------
W - whole; H - half; Q - quarter; E - 8th; S - 16th; T - 32nd; X - 64th; a - acciaccatura
+ - note tied to previous; . - note dotted; .. - note double dotted
Uncapitalized letters represent notes that are staccato (1/2 duration)
Irregular groupings are notated above the duration line
Duration letters will always appear directly above the note/fret number it represents the
duration for.  Duration letters with no fret number below them represent rests.  Multi-
bar rests are notated in the form Wxn, where n is the number of bars to rest for.  Low
melody durations appear below the staff

Tablature Legend
----------------
 h   - hammer-on
 p   - pull-off
 b   - bend
 pb  - pre-bend
 r   - bend release (if no number after the r, then release immediately)
 /\  - slide into or out of (from/to "nowhere")
 s   - legato slide
 S   - shift slide
 - natural harmonic
[n]  - artificial harmonic
n(n) - tapped harmonic
 ~   - vibrato
 tr  - trill
 T   - tap
 TP  - trem. picking
 PM  - palm muting
\n/  - tremolo bar dip; n = amount to dip
 \n  - tremolo bar down
 n/  - tremolo bar up
/n\  - tremolo bar inverted dip
 =   - hold bend; also acts as connecting device for hammers/pulls
 <> - volume swell (louder/softer)
 x   - on rhythm slash represents muted slash
 o   - on rhythm slash represents single note slash

Misc Legend
-----------
 |  - bar
||  - double bar
||o - repeat start
o|| - repeat end
*|  - double bar (ending)
 :  - bar (freetime)
 $  - Segno
 &  - Coda
Tempo markers -  = BPM(8/16=s8/s16), where s8 = swing 8ths, s16 = swing 16ths

Tap to rate this tab
# A B C D E F G H I J K L M N O P Q R S T U V W X Y Z