Song name
# A B C D E F G H I J K L M N O P Q R S T U V W X Y Z

Circa Survive - Greatest Lie tab

"The Greatest Lie" by Circa Survive

Written and arranged by Circa Survive

Transcribed by Tom :)

Tuning: Half-Step Down
Eb Ab Db Gb Bb Eb

Intro (but also used a lot through out song)
Guitar 1

||-----------------------------------------------------------||
||-------8-------8-------------------------------------------||
||--7s9------9-------9----11---------------------------------||   (x6)
||-----------------------------------------------------------||
||-----------------------------------------------------------||
||-----------------------------------------------------------||


||-----------------------------------------------------------||
||-------12-------12-------12-------12--------12-------------||
||--7s9-----11-11----11-11----11-11----11-11----------11-----||
||-----------------------------------------------------------||
||-----------------------------------------------------------||
||-----------------------------------------------------------||


||-----------------------------------------------------------||
||--10-------10--------8---------8--------8------------------||
||-----11-11----11-11-----11-11----11-11---------11----------||
||-----------------------------------------------------------||
||-----------------------------------------------------------||
||-----------------------------------------------------------||


||-----------------------------------------------------------||
||--15-------15--------12---------12--------12---------------||
||-----11-11----11-11-----11-11------11-11---------11--------||
||-----------------------------------------------------------||
||-----------------------------------------------------------||
||-----------------------------------------------------------||

||---------------------------------------------15b-----------||
||--15-------15--------16---------16-------------------------||
||-----11-11----11-11-----11-11------11-11-------------------||
||-----------------------------------------------------------||
||-----------------------------------------------------------||
||-----------------------------------------------------------||

||-----------------------------------------------------------||
||-----------------------------------------------------------||
||-----------------------------------------------------------||
||-----------------------------------------------------------||
||--12h14-(x8)---------------12h14-(x8)----------------------||
||---------------12h14-(x8)--------------12h14-(x8)----------||


 This part i'm not sure about... its something close to this...
||-----------------------------------------------------------||
||-----------------------------------------------------------||
||-----------------------------------------------------------||
||-----------------------------------------------------------||
||-12-12-12s10-10-10-10s9-9-9-9s7-7--------------------------||
||-----------------------------------------------------------||

*****NOTICE*****

Guitar 2 is absent in this tab... If someone could post it, I would be very 
Thanks and please leave comments! -Tom
Tap to rate this tab
# A B C D E F G H I J K L M N O P Q R S T U V W X Y Z