Guitaretab - guitar tabs
Song name
# A B C D E F G H I J K L M N O P Q R S T U V W X Y Z

Circa Survive - Travel Hymn tab

-------------------------------------------------------------------------------
			     Travel Hymn  Circa Survive
-------------------------------------------------------------------------------
Tabbed by: xMartyMcFly
Email: xexcessive@gmail.com

Tuning: Standard

Intro
e|---------------------------------------------------------------------------|
B|----------------------------------\6----2--6-------------------------------|
G|---\10---6--10~-------or-------------3-------------------------------------|
D|-------8-------------------------------------------------------------------|
A|---------------------------------------------------------------------------|
E|---------------------------------------------------------------------------|
[ Tab from: http://www.guitaretab.com/c/circa-survive/93792.html ]
Pre chorus (figure out strumming)
e|---------------------------------------------------------------------------|
B|---------------------------------------------------------------------------|
G|---11---8----10------------------------------------------------------------|
D|---x----x----x-------------------------------------------------------------|
A|---9----6----8-------------------------------------------------------------|
E|---------------------------------------------------------------------------|

Chorus
e|---------------------------------------------------------------------------|
B|---------------------------------------------------------------------------|
G|---10--6--6--8--8--5-5\6--6-----------------------------------------------|
D|---x---x--x--x--x--x-x\x--x-----------------------------------------------|
A|---8---4--4--6--6--3-3\4--4-----------------------------------------------|
E|---------------------------------------------------------------------------|
Related for Travel Hymn tab