Song name
# A B C D E F G H I J K L M N O P Q R S T U V W X Y Z

Circle Ii Circle - Sentenced tab

Band: Circle II Circle
Song: Sentenced
CD:   Burden of Truth
Year: 2006

http://www.circle2circle.net/

*Notes: This is very incomplete. I'm hoping it'll just
give someone else a starting point..*

   Intro solo
E|---------------------------------------------------|
B|---15b17--15b17r15--13--15--12---------------------|
G|--------------------------------15--15b17--17b19---|
D|---------------------------------------------------|
A|---------------------------------------------------|
E|---------------------------------------------------|


   Verse:
E|---
B|---
G|---
D|---
A|---
E|---


   Pre chorus:
E|----------------------------------------|
B|-----------5tr6-------------------------|
G|-------5---------7--5-------------------|
D|---7---5---------7--5---------7---------|
A|---7---3---------5--3--7h9h10---10-7-9--|
E|---5------------------------------------|


  Chorus:
E|----------------------|
B|----------------------|
G|---9--7--9------------|
D|---9--7--9------------|
A|---7--5--7------------|
E|------------000--00---|


E|---------------------------|
B|---------------------------|
G|---9--7--9-------------4---|
D|---9--7--9----------6--4---|
A|---7--5--7----------6--2---|
E|------------000--00-4------|


   Intro solo again (slight difference)
E|------------------------------------------------------|
B|---15b17--15b17r15--13--15--12------------------------|
G|--------------------------------15--15b17--17b19--9~~-|
D|------------------------------------------------------|
A|------------------------------------------------------|
E|------------------------------------------------------|


   Verse:
E|---
B|---
G|---
D|---
A|---
E|---


   Pre chorus:
E|----------------------------------------|
B|-----------5tr6-------------------------|
G|-------5---------7--5-------------------|
D|---7---5---------7--5---------7---------|
A|---7---3---------5--3--7h9h10---10-7-9--|
E|---5------------------------------------|


  Chorus:
E|----------------------|
B|----------------------|
G|---9--7--9------------|
D|---9--7--9------------|
A|---7--5--7------------|
E|------------000--00---|


E|---------------------------|
B|---------------------------|
G|---9--7--9-------------4---|
D|---9--7--9----------6--4---|
A|---7--5--7----------6--2---|
E|------------000--00-4------|


   Bridge:
E|---
B|---
G|---
D|---
A|---
E|---


   Solo: (Rhythm plays chorus)
E|--------------------------------------------|
B|--------------------------------------------|
G|----------12--10~~--10b--10b-9h11-9~~11~~---|
D|---9--12------------------------------------|
A|--------------------------------------------|
E|--------------------------------------------|

E|------------------------------16b~~---16b~~---|
B|--------------15b-----------------------------|
G|----------15--------------15------------------|
D|---14h16-----------14h16----------------------|
A|----------------------------------------------|
E|----------------------------------------------|


   Verse:
E|---
B|---
G|---
D|---
A|---
E|---


   Pre chorus:
E|----------------------------------------|
B|-----------5tr6-------------------------|
G|-------5---------7--5-------------------|
D|---7---5---------7--5---------7---------|
A|---7---3---------5--3--7h9h10---10-7-9--|
E|---5------------------------------------|


  Chorus:
E|----------------------|
B|----------------------|
G|---9--7--9------------|
D|---9--7--9------------|
A|---7--5--7------------|
E|------------000--00---|


E|---------------------------|
B|---------------------------|
G|---9--7--9-------------4---|
D|---9--7--9----------6--4---|
A|---7--5--7----------6--2---|
E|------------000--00-4------|


   Outro:
E|---
B|---
G|---
D|---
A|---
E|---
Tap to rate this tab
 
# A B C D E F G H I J K L M N O P Q R S T U V W X Y Z