Song name
# A B C D E F G H I J K L M N O P Q R S T U V W X Y Z

Circle Jerks - Wasted tab

Artist: Circle Jerks
Song: Wasted
Tabbed by: bryon
Tuning: standard


Intro 
E|----------------------------------------------|
B|----------------------------------------------|
G|--6-------9-----------------------------------|
D|--6---7---9--9--------------------------------|
A|--4---7---7--9--------------------------------|
E|------5------7--------------------------------|

Verse:
E|----------------------------------------------|
B|----------------------------------------------|
G|------7-----------9---------------------------|
D|---7--7--7-----9--9--9------------------------|
A|---7--5--7-----9--7--9------------------------|
E|---5-----5-----7-----7------------------------|

Chorus:
E|----------------------------------------------|
B|----------------------------------------------|
G|--6-------9-----9-----------------------------|
D|--6---7---9--9--9--9--------------------------|
A|--4---7---7--9--7--9--------------------------|
E|------5------7-----7--------------------------|


if you have any questions, comments, complaints or death threats
send them to bryon_666@hotmail.com
Tap to rate this tab
# A B C D E F G H I J K L M N O P Q R S T U V W X Y Z