Song name
# A B C D E F G H I J K L M N O P Q R S T U V W X Y Z

Circle Jerks - Back Up Against The Wall tab

-------------------------------------------------------------------------------
			     Back Against the Wall - Circle Jerks
-------------------------------------------------------------------------------
Tabbed by: MattTheArsonist
Email: sadstatue89@msn.com

Tuning:EADGBe

Intro
e|---3p2---------------2--3p2----5~~~----------|
B|-------3----------3---------3-------(0)(0)---|
G|----------2~~--2--------------------(0)(0)---|
D|---------------------------------------------|
A|---------------------------------------------|
E|---------------------------------------------|


Verse
e|--------------------------|
B|--------8-8---5-5---------|
G|--4-4---7-7---4-4---7-7---|
D|--4-4---5-5---2-2---7-7---|
A|--2-2---------------5-5---|
E|--------------------------|x8

Chorus
e|---------------------------------------------------------------------------|
B|---------------------------------------------------------------------------|
G|--1111111111111111--4444444444444444--1111111111111111--44444444\66666666--|
D|--2222222222222222--5555555555555555--2222222222222222--55555555\77777777--|
A|--2222222222222222--5555555555555555--2222222222222222--55555555\77777777--|
E|--0000000000000000--3333333333333333--0000000000000000--33333333\55555555--|

Verse x6
Chorus

Solo
e|---------------------------------------------------------------------|
B|------5-5-5------5-5-5------5-5-5------5-5-5--5-5-5-------8-8-8------|
G|--8b---------8b---------8b---------8b-----------------11b------------|
D|---------------------------------------------------------------------|
A|---------------------------------------------------------------------|
E|---------------------------------------------------------------------|

e|------------------------------------12-12-12-12-----12-12----12-12--|
B|------8-8-8------8-8-8------8-8-8---12-12-12-12-----12-12----12-12--|
G|--11b--------11b--------11b---------14-14-14-14--14-------14--------|
D|--------------------------------------------------------------------|
A|--------------------------------------------------------------------|
E|--------------------------------------------------------------------|

e|-----------------------1515151515151515--1717171717171717---|
B|-----------------------1515151515151515--1717171717171717---|
G|-16-16-16-14-12-14-16---------------------------------------|
D|------------------------------------------------------------|
A|------------------------------------------------------------|
E|------------------------------------------------------------|

You can play the chorus under the solo, but speed up the progression of the last two chords.

Verse x4 (Very fast)
Chorus(Very fast)

End On
e|--0---|
B|--0---|
G|--1---|
D|--2---|
A|--2---|
E|--0---|

One of my favorite Circle Jerks songs. It's all right, you can use variations of the
verse powerchords too and you can extend the Chorus chords to full on bar chords if
you prefer. The solo is almost perfect, not completely, but play around with it and
you'll get the right sound. Thanks, and rate it please.
Tap to rate this tab
 
# A B C D E F G H I J K L M N O P Q R S T U V W X Y Z